PrimaNota.ru - самый крупный в мире бесплатный архив песенных текстов, аккордов, табулатур и нот


Merciless Death - The Abyss - таба, видео

Регистрация Запомнить меня
Войти через:  Facebook Google Twitter Vk Yandex Mail.ru

Merciless Death - The Abyss - таба, видео

Печатать
Просмотров: 43
Artist: Merciless Death
Song: The Abyss
Album: Realm Of Terror
Year: 2008
Tabbed by: antichris666

Tuning: E standard

 Clean
(0:00)
 Gtr I
e|---------------------------------------------|---------------------------------------------|
B|---------------------------------------------|---------------------------------------------|
G|-------2-----------2-----------5--6----------|-------2-----------2-----------5--6----------|
D|----2-----2-----2-----2-----5--------6-------|----2-----2-----2-----2-----5--------6-------|
A|-0-----------0-----------3--------------4--1-|-0-----------0-----------3--------------4--1-|
E|---------------------------------------------|---------------------------------------------|

(0:06)
 Gtr I
e|---------------------------------------------|---------------------------------------------|
B|---------------------------------------------|---------------------------------------------|
G|-------2-----------2-----------5--6----------|-------2-----------2-----------5--6----------|
D|----2-----2-----2-----2-----5--------6-------|----2-----2-----2-----2-----5--------6-------|
A|-0-----------0-----------3--------------4--1-|-0-----------0-----------3--------------4--1-|
E|---------------------------------------------|---------------------------------------------|


 Distortion
(0:12)
 Gtr I
e|---------------------------------------------|---------------------------------------------|
B|---------------------------------------------|---------------------------------------------|
G|-------2-----------2-----------5--6----------|-------2-----------2-----------5--6----------|
D|----2-----2-----2-----2-----5--------6-------|----2-----2-----2-----2-----5--------6-------|
A|-0-----------0-----------3--------------4--1-|-0-----------0-----------3--------------4--1-|
E|---------------------------------------------|---------------------------------------------|

 Gtr II
e|---------------------------------------------|---------------------------------------------|
B|---------------------------------------------|---------------------------------------------|
G|-2-----------------------5--------------6--3-|-2-----------------------5--------------6--3-|
D|-2-----------------------5--------------6--3-|-2-----------------------5--------------6--3-|
A|-0-----------------------3--------------4--1-|-0-----------------------3--------------4--1-|
E|---------------------------------------------|---------------------------------------------|


(0:18)
 Gtr I
e|---------------------------------------------|---------------------------------------------|
B|---------------------------------------------|---------------------------------------------|
G|-------2-----------2-----------5--6----------|-------2-----------2-----------5--6----------|
D|----2-----2-----2-----2-----5--------6-------|----2-----2-----2-----2-----5--------6-------|
A|-0-----------0-----------3--------------4--1-|-0-----------0-----------3--------------4--1-|
E|---------------------------------------------|---------------------------------------------|

 Gtr II
e|---------------------------------------------|---------------------------------------------|
B|---------------------------------------------|---------------------------------------------|
G|-2-----------------------5--------------6--3-|-2-----------------------5--------------6--3-|
D|-2-----------------------5--------------6--3-|-2-----------------------5--------------6--3-|
A|-0-----------------------3--------------4--1-|-0-----------------------3--------------4--1-|
E|---------------------------------------------|---------------------------------------------|


(0:24)
 Gtr I & II
e|---------------------------------------------|---------------------------------------------|
B|---------------------------------------------|---------------------------------------------|
G|-2-----------------------5--------------6--3-|-2-----------------------5--------------6--3-|
D|-2-----------------------5--------------6--3-|-2-----------------------5--------------6--3-|
A|-0-----------------------3--------------4--1-|-0-----------------------3--------------4--1-|
E|---------------------------------------------|---------------------------------------------|


(0:29)
 Gtr I & II
e|---------------------------------------------|---------------------------------------------|
B|---------------------------------------------|---------------------------------------------|
G|-2-----------------------5--------------6--3-|-2-----------------------5--------------6--3-|
D|-2-----------------------5--------------6--3-|-2-----------------------5--------------6--3-|
A|-0-----------------------3--------------4--1-|-0-----------------------3--------------4--1-|
E|---------------------------------------------|---------------------------------------------|


(0:34)
 Gtr I & II
e|---------------------------------------------|---------------------------------------------|
B|---------------------------------------------|---------------------------------------------|
G|-2-2-2-2--2------------------5-5-5-6-6-6-3-3-|-2-2-2-2--2------------------5-5-5-6-6-6-3-3-|
D|-2-2-2-2--2------------------5-5-5-6-6-6-3-3-|-2-2-2-2--2------------------5-5-5-6-6-6-3-3-|
A|-0-0-0-0--0------------------3-3-3-4-4-4-1-1-|-0-0-0-0--0------------------3-3-3-4-4-4-1-1-|
E|---------------------------------------------|---------------------------------------------|
   . . . .                     . . . . . . . .   . . . .                     . . . . . . . . 


(0:39)
 Gtr I & II
e|---------------------------------------------|---------------------------------------------|
B|---------------------------------------------|---------------------------------------------|
G|-2-2-2-2--2------------------5-5-5-6-6-6-3-3-|-2-2-2-2--2------------------5-5-5-6-6-6-3-3-|
D|-2-2-2-2--2------------------5-5-5-6-6-6-3-3-|-2-2-2-2--2------------------5-5-5-6-6-6-3-3-|
A|-0-0-0-0--0------------------3-3-3-4-4-4-1-1-|-0-0-0-0--0------------------3-3-3-4-4-4-1-1-|
E|---------------------------------------------|---------------------------------------------|
   . . . .                     . . . . . . . .   . . . .                     . . . . . . . . 


(0:44)
 Gtr I
e|---------------------------------------------|---------------------------------------------|
B|---------------------------------------------|---------------------------------------------|
G|-------2-----------2-----------5--6----------|-------2-----------2-----------5--6----------|
D|----2-----2-----2-----2-----5--------6-------|----2-----2-----2-----2-----5--------6-------|
A|-0-----------0-----------3--------------4--1-|-0-----------0-----------3--------------4--1-|
E|---------------------------------------------|---------------------------------------------|

 Gtr II
e|---------------------------------------------|---------------------------------------------|
B|---------------------------------------------|---------------------------------------------|
G|-2-----------------------5--------------6--3-|-2-----------------------5--------------6--3-|
D|-2-----------------------5--------------6--3-|-2-----------------------5--------------6--3-|
A|-0-----------------------3--------------4--1-|-0-----------------------3--------------4--1-|
E|---------------------------------------------|---------------------------------------------|


(0:50)
 Gtr I
e|---------------------------------------------|---------------------------------------------|
B|---------------------------------------------|---------------------------------------------|
G|-------2-----------2-----------5--6----------|-------2-----------2-----------5--6----------|
D|----2-----2-----2-----2-----5--------6-------|----2-----2-----2-----2-----5--------6-------|
A|-0-----------0-----------3--------------4--1-|-0-----------0-----------3--------------4--1-|
E|---------------------------------------------|---------------------------------------------|

 Gtr II
e|---------------------------------------------|---------------------------------------------|
B|---------------------------------------------|---------------------------------------------|
G|-2-----------------------5--------------6--3-|-2-----------------------5--------------6--3-|
D|-2-----------------------5--------------6--3-|-2-----------------------5--------------6--3-|
A|-0-----------------------3--------------4--1-|-0-----------------------3--------------4--1-|
E|---------------------------------------------|---------------------------------------------|


(0:55)
 Gtr I & II
e|---------------------------------------------|
B|---------------------------------------------|
G|-2-------------------------------------------|
D|-2-------------------------------------------|
A|-0-------------------------------------------|
E|---------------------------------------------|



************************************
| .   palm mute
| /   slide up
| \   slide down
| h   hammer-on
| p   pull-off
| ~   vibrato
| +   harmonic
| x   Mute note
| b   Bend
| pb  Pre-bend
| br  Bend release
| pbr Pre-bend release
| brb Bend release bend

************************************
Добавлено: 03.05.2016
Вам также может быть интересно:
Другие материалы по этой песне:
  • Аккорды и текст

Страница создана 03.05.2016
http://primanota.ru/merciless-death/abyss-chords.htm
Привет, Гость.
Предлагаем пройти революционный курс по гитаре.
Подарок от PrimaNota.Ru, забирай!