PrimaNota.ru - самый крупный в мире бесплатный архив песенных текстов, аккордов, табулатур и нот


Mentake - Moving On - таба, видео

Регистрация Запомнить меня
Войти через:  Facebook Google Twitter Vk Yandex Mail.ru

Mentake - Moving On - таба, видео

Печатать
Просмотров: 199
Capo on 5th Fret
Tabbed by Crossheart

Verse
Gtr.1
e|-3----3---3-3-3-3---3-3-3-|-3----3--3-3-3-3-3-3-3-0----|
B|-3----3---3-3-3-3---3-3-3-|-3----3--3-3-3-3-3-3-3-3----|
G|-0----0---0-0-0-0---0-0-0-|-0----0--0-0-0-2-2-2-2-2----|
D|-0----0---0-2-2-2---2-2-2-|-2----2--2-2-2-0-0-0-0-0----|
A|-2----2---2-2-2-2---2-2-2-|-3----3--3-3-3--------------|
E|-3----3---3-0-0-0---0-0-0-|----------------------------|
   C          Am              F             G             
Gtr.2
e|--------------------------|-8---------------------------
B|--------------------------|----8----5---8---------------
G|--------------------------|-----------------------------
D|--------------------------|-----------------------------
A|--------------------------|-----------------------------
E|--------------------------|-----------------------------

Play the Verse once with Guitar 2 and then Guitar 2 stops for the rest of the verse.
Play the Verse 4 more times after.

Pre-Chorus
e|-3----3---3-3-3-3---3-3-3-|-3----3--3-3-3-3-3-3-3-3----|
B|-3----3---3-3-3-3---3-3-3-|-3----3--3-3-3-3-3-3-3-3----|
G|-0----0---0-0-0-0---0-0-0-|-2----2--2-2-2-2-2-2-2-2----|
D|-2----2---2-2-2-2---2-2-2-|-0----0--0-0-0-0-0-0-0-0----|
A|-2----2---2-2-2-2---2-2-2-|----------------------------|
E|-0----0---0-0-0-0---0-0-0-|----------------------------|
   Am                         G
e|-3----3---3-3-3-3---3-3-3-|-3--3----3---|
B|-3----3---3-3-3-3---3-3-3-|-3--3----3---|
G|-0----0---0-0-0-0---0-0-0-|-2--2----0---|
D|-0----0---0-0-0-0---0-0-0-|-0--0----2---|
A|-2----2---2-2-2-2---2-2-2-|---------2---|
E|-3----3---3-3-3-3---3-3-3-|---------0---|
   C                          G       Am
e|-----3---3-3-3-3---3-3-3-|-3----3--3-3-3--3-3-|
B|-----3---3-3-3-3---3-3-3-|-3----3--3-3-3--3-3-|
G|-----0---0-0-0-0---0-0-0-|-0----0--0-0-0--0-0-|x2
D|-----2---2-2-2-2---2-2-2-|-2----2--2-2-2--2-2-|
A|-----2---2-2-2-2---2-2-2-|-3----3--3-3-3--3-3-|
E|-----0---0-0-0-0---0-0-0-|--------------------|
  Am                         F
e|-3----3---3-3-3-3---3-3-3-|
B|-3----3---3-3-3-3---3-3-3-|
G|-2----2---2-2-2-2---2-2-2-|x2
D|-0----0---0-0-0-0---0-0-0-|
A|--------------------------|
E|--------------------------|
   G

Chorus
Just play these chords in the same order: C, Am, F, G

C                     Am                  F
She's lying on her bed and she's just listening
       G                 C     Am
To the silence in this room
              F                   G
And could she bring that sound to life
      C                Am                   F
She's been around the world and she's been thinking
      G         C        Am
About moving on again
          F              G        Am
And maybe never come back...again

    G                                    C
She doesn't want to realize what's going on
G      Am
In her life
             Am                F
And when she figures out she's wrong
         G
It'll be too late


CHORUS
      C                               Am
She's living like a queen but she's a pawn
         F         
At least that's how she feels
          G
But she's moving on
      C                                     Am
She's had the worst days and still it's not over
          F
But she's moving on
           G
Yeah she's moving on



NOTE: The Bridge is missing.
Добавлено: 01.07.2012
Другие материалы по этой песне:
  • Аккорды и текст

Страница создана 01.07.2012
http://primanota.ru/mentake/moving-on-chords.htm
Привет, Гость.
Предлагаем пройти революционный курс по гитаре.
Подарок от PrimaNota.Ru, забирай!