PrimaNota.ru - самый крупный в мире бесплатный архив песенных текстов, аккордов, табулатур и нот


Menswear - Daydreamer - аккорды и текст, таба, видео

Регистрация Запомнить меня
Войти через:  Facebook Google Twitter Vk Yandex Mail.ru

Menswear - Daydreamer - аккорды и текст, таба, видео

Печатать
Просмотров: 133
Уроки эстрадного вокала в Санкт-Петербурге
Авторы: Simon White, Stuart Black, Johnny Dean, Chris Gentry, Matthew Everitt

Daydreamer
Menswear
		   t. See http://www..net/faq/ for more information.                     #
#-----------------------------------------------------------------------------#


"Daydreamer" by Menswe@r
From "Nuisance" (1995)
Transcribed by Richard.Walledge@stud.umist.ac.uk

If you can be bothered, you should down-tune one full step, although
with all the distortion it doesn't matter too much if you don't.

BASS Intro:
  g:-------------------
  d:-------------------
  a:-------------------
  e:--1-1-x-0-1-1-3-5--

VERSE:               CHORUS:
E:----------------   -------------
b:----------------   -------------
g:-2-2----2-2-----   -2---2---2-x-
d:-3-3----3-3-5-7-   -3-3-3-3-3-x-
a:-3-3--2-3-3-5-7-   -3-3-3-3-3-x-
e:-1-1--0-1-1-3-5-   -1-1-1-1-1-x-

SOLO:
  E:--1-0--0-1p0h1p0h1p0h1p0----
  b:--1-------------------------
  g:----------------------------

Don't drink and swim.     
Добавлено: 11.08.2013
Вам также может быть интересно:
Другие материалы по этой песне:
  • Аккорды и текст

Страница создана 19.06.2013
http://primanota.ru/menswear/daydreamer-chords.htm
Привет, Гость.
Предлагаем пройти революционный курс по гитаре.
Подарок от PrimaNota.Ru, забирай!