PrimaNota.ru - самый крупный в мире бесплатный архив песенных текстов, аккордов, табулатур и нот


Menomena - Tithe - таба, видео

Регистрация Запомнить меня
Войти через:  Facebook Google Twitter Vk Yandex Mail.ru

Menomena - Tithe - таба, видео

Печатать
Просмотров: 39
Menomena
"Tithe"
Mines (2010)

Tuning - Standard (EADGBe)

Heavy distortion, a little reverb, and hard strumming

Main Riff:
(1:25-)
  1  2  3  4    1  2  3  4    1  2  3  4    1  2  3  4
|-9--7--------|-9--7--------|-9--5--------|-4----------||
|-7--7--------|-7--7--------|-7--5--------|-5---------o||
|-7--7--------|-7--7--------|-7--6--------|-4----------||
|-7--7--------|-7--7--------|-7--7--------|-6----------||
|-9--9--------|-9--9--------|-9--7--------|-7---------o||
|-------------|-------------|-------------|------------||

Chorus
(2:13-)
  1  2  3  4    1  2  3  4    1  2  3  4    1  2  3  4
|-9--7--------|-9--7--------|-9--5--------|-4----------|
|-7--7--------|-7--7--------|-7--5--------|-5----------|
|-7--7--------|-7--7--------|-7--6--------|-4----------|
|-7--7--------|-7--7--------|-7--7--------|-6----------|
|-9--9--------|-9--9--------|-9--7--------|-7----------|
|-------------|-------------|-------------|------------|

(2:26-)
  1 ^ ^ ^ 2 ^ ^ ^ 3 ^ ^ ^ 4 ^ ^ ^   1 ^ ^ ^ 2 ^ ^ ^ 3 ^ ^ ^ 4 ^ ^ ^
|-9-------7-----5-5-7-7-5-7/9-----|-9-------7-----5-5-7-7-5-7/9-----|
|-7-------7-----------------------|-7-------7-----------------------|
|-7-------7-----------------------|-7-------7-----------------------|
|-7-------7-----------------------|-7-------7-----------------------|
|-9-------9-----------------------|-9-------9-----------------------|
|---------------------------------|---------------------------------|

                                                            (solo 2:37)
  1 ^ ^ ^ 2 ^ ^ ^ 3 ^ ^ ^ 4 ^ ^ ^   1 ^ ^ ^ 2 ^ ^ ^ 3 ^ ^ ^ 4 ^ ^ ^ 
|-9-------5-----5-5-7-7-5-7~~/9---|----------------------||---------|
|-7-------5---------------------9vb~~~~~~~~~~------------||o----5---|
|-7-------6-----------------------|----------------------||---------|
|-7-------7-----------------------|----------------------||o---(2)--|
|-9-------7-----------------------|----------------------||---------|
|---------------------------------|----------------------||---------|

(the solo is played on two guitars, both with slides)
  1 ^ ^ ^ 2 ^ ^ ^ 3 ^ ^ ^ 4 ^ ^ ^   1 ^ ^ ^ 2 ^ ^ ^ 3 ^ ^ ^ 4 ^ ^ ^
|---------------------------------|---------------------------------|
|-5///7---7-------------------5---|-5///7---7-------------------7---|
|---------------------------------|---------------------------------|
|(2)/(4)-(4)-----------------(2)--|(2)/(4)-(4)-----------------(4)--|
|---------------------------------|---------------------------------|
|---------------------------------|---------------------------------|

  1 ^ ^ ^ 2 ^ ^ ^ 3 ^ ^ ^ 4 ^ ^ ^   1 ^ ^ ^ 2 ^ ^ ^ 3 ^ ^ ^ 4 ^ ^ ^
|---------------------------------|-------------------------||------|
|-7\\\5///10----------------------|-10////12---------------o||------|
|---------------------------------|-------------------------||------|
|(4)\(2)/(7)----------------------|(7)///(9)----------------||------|
|---------------------------------|------------------------o||------|
|---------------------------------|-------------------------||------|

Most of the song follows a simple chord structure, with guitar parts
throughout the song. Some parts have some of extra stuff going on
but I've just got the gist of it here. Good luck guys!

~Jeyqwop

Intro (0:00-1:25)
Main Riff (1:25-1:47)
Verse 1 (1:47-2:13)
               Bm                               A                E
  Spending the best years, of a childhood, horizontal on the floor
         Bm                                   A            E
  Like a bobsled, minus the teamwork, and the televised support

Chorus (2:13-2:37 w/ Main Riff)
      Bm                 A          E
  And nothing, sounds, appealing, appealing

(w/ Chorus Riff)
      Bm                 A          E
  And nothing, sounds, appealing, appealing

Solo (2:37-3:00)
Verse 2 (3:00-3:50)
            Bm                             A                         E
  Someone retired, on a percentage, of the tithe, that paved these roads
               Bm                                             A                 E
  They lead to nowhere, but they're still gridlocked, made of Solomon's pure gold

(w/ Main Riff at 3:26)
              Bm                                             A                  E
  Beneath the door frame, waiting for earthquakes, after the rapture comes and goes
                  Bm                                         A                    E
  The saints went marching, the trumpets salving, the chosen ones are phoning a goal

Chorus (3:50-4:00 w/ Main Riff/Solo parts mixed in, listen for it)
      Bm                 A          E
  And nothing, sounds, appealing, appealing
      Bm                 A          E
  And nothing, sounds, appealing, appealing

Chorus (4:15-4:53 w/ Main Riff/Chorus Riff/Solo parts, again listen for it)
      Bm                 A          E
  And nothing, sounds, appealing, appealing
      Bm                 A          E
  And nothing, sounds, appealing, appealing
      Bm                 A          E
  And nothing, sounds, appealing, appealing
Добавлено: 07.06.2016
Другие материалы по этой песне:
  • Аккорды и текст

Страница создана 07.06.2016
http://primanota.ru/menomena/tithe-chords.htm
Привет, Гость.
Предлагаем пройти революционный курс по гитаре.
Подарок от PrimaNota.Ru, забирай!