PrimaNota.ru - самый крупный в мире бесплатный архив песенных текстов, аккордов, табулатур и нот


Menahan Street Band - Home Again - таба, видео

Регистрация Запомнить меня
Войти через:  Facebook Google Twitter Vk Yandex Mail.ru

Menahan Street Band - Home Again - таба, видео

Печатать
Просмотров: 69
-------------------------------------------------------------------------------
                             HOME AGAIN! - MENAHAN STREET BAND
-------------------------------------------------------------------------------
Tabbed by: ignaciomendez
E-mail: ignacio.mendeznunez@gmail.com

Tuning: Standard

Intro Guitar Riff (Heard throughout)

e|--5--5-5-3--1--0---3-0----------5--5-5--3--1--0--3-0-----------------------|
B|--3------------1---1----3-------3-------------1--1----3--------------------|
G|--3------------2---2----3-------3-------------2--2----3--------------------|
D|-3-------------3---3----3------3--------------3--3----3--------------------|
A|---------------------------------------------------------------------------|
E|---------------------------------------------------------------------------|

Rhythm Guitar
  Fmaj7      Gm7
e|--8----8----3----3---------------------------------------------------------|
B|-10---10----3----3---------------------------------------------------------|
G|--9----9----3----3---------------------------------------------------------|
D|-10---10----3----3---------------------------------------------------------|
A|--8----8----5----5---------------------------------------------------------|
E|---------------------------------------------------------------------------|

@1:02 (made to fit horn part in highest string)
  Am7   Gm7         Am7  Gm7  Am7  Gm7         Am7   Abm7  Gm7
e|-------5----------5--------------------------------------------------------|
B|-8-----3----------8----3----8----3-----------5-5----4-4---3-3--------------|
G|-5-----3----------5----3----5----3-----------5-5----4-4---3-3--------------|
D|-5-----3-----3----5----3----5----3-----------5-5----4-4---3-3--------------|
A|-7-----5--/5---5--7----5----7----5-----------7-7----6-6---5-5--------------|
E|-5----------------5---------5----------------------------------------------|

 @1:31
  Gm7 Am7 Bb Am7    Gm7 Am7 Bb Am7    Gm7 Am7 Bb Am7     C7
e|--------------------------------------------------------8------------------|
B|33--55--66--55----33--55--66--55----33--55--66--55------8------------------|
G|33--55--77--55----33--55--77--55----33--55--77--55------9------------------|
D|33--55--88--55----33--55--88--55----33--55--88--55------8------------------|
A|55--77--88--77----55--77--88--77----55--77--88--77-----10------------------|
E|--------------------------------------------------------8------------------|



************************************

| /   slide up
| \   slide down
| h   hammer-on
| p   pull-off

************************************
Добавлено: 31.12.2015
Другие материалы по этой песне:
  • Аккорды и текст

Страница создана 31.12.2015
http://primanota.ru/menahan-street-band/home-again-chords.htm
Привет, Гость.
Предлагаем пройти революционный курс по гитаре.
Подарок от PrimaNota.Ru, забирай!