PrimaNota.ru - самый крупный в мире бесплатный архив песенных текстов, аккордов, табулатур и нот


Memoryhouse - Caregiver - таба, видео

Регистрация Запомнить меня
Войти через:  Facebook Google Twitter Vk Yandex Mail.ru

Memoryhouse - Caregiver - таба, видео

Печатать
Просмотров: 61
-------------------------------------------------------------------------------
                             Caregiver - Memoryhouse
-------------------------------------------------------------------------------
Tabbed by: Brandon Jubb
E-mail: brandon_jubb@yahoo.com

This will be my first tab; I'm a novice player myself so any input or corrections are appreciated.

They won't be entirely accurate or complete but I hope it builds up a decent framework for the song.

First Draft

Tuning: EADGBE

Chords: Em, Dmaj
For this song the lower strings seem to be the best place to focus.
I've included the individual notes of each string.
* indicates I prefer to not strum that string for this particular song.
In this case when playing Dmaj E and A should be strummed.

Em: 

e|-0--:E*
B|-0--:B*
G|-0--:G*
D|-2--:E
A|-2--:B
E|-0--:E

Dmaj:

e|-2--:F#*
B|-3--:D*
G|-2--:A
D|-0--:D
A|-x--:A
E|-x--:E


Main Melody Pt. 1 (Piano):
e|---------------------------------------------------------------------------|
B|-------------------------------------------------10--12--10----------------|
G|-12------12------12------12------11------11------11------11--12--12--------|
D|-14------14------14------14------12------12------12------12------14--------|
A|---------------------------------------------------------------------------|
E|---------------------------------------------------------------------------|

Main Melody Pt. 2
e|-----------------12------10------------------------------------------------|
B|-----------------------------------------10------12------------------------|
G|-12------12------12------11------11------11------11------------------------|
D|-14------14------14------12------12------12------12------------------------|
A|---------------------------------------------------------------------------|
E|---------------------------------------------------------------------------|

Guitar Lick (0:56)
(in the song there is a light slide to 12 on D, however I prefer to let the 12th harmonic ring out)
e|---------------------------------------------------------------------------|
B|---------------------------------------------------------------------------|
G|------------12---14/-16--14--12-------------------------------------------|
D|-(10/-12+)-----------------------14--12+-----------------------------------|
A|---------------------------------------------------------------------------|
E|---------------------------------------------------------------------------|

Distorted Guitar Lick (1:36)
G, F, Em
e|---------------------------------------------------------------------------|
B|---------------------------------------------------------------------------|
G|---------------------------------------------------------------------------|
D|----------2----------------------------------------------------------------|
A|----------2----------------------------------------------------------------|
E|--3---2---0----------------------------------------------------------------|


************************************

| /   slide up
| \   slide down
| h   hammer-on
| p   pull-off
| +   harmonic
| x   Mute note
| *   Preferred to not strum for this particular song


************************************
Добавлено: 11.08.2015
Другие материалы по этой песне:
  • Аккорды и текст

Страница создана 11.08.2015
http://primanota.ru/memoryhouse/caregiver-chords.htm
Привет, Гость.
Предлагаем пройти революционный курс по гитаре.
Подарок от PrimaNota.Ru, забирай!