PrimaNota.ru - самый крупный в мире бесплатный архив песенных текстов, аккордов, табулатур и нот


Memories - I Wanna Be That Guy - аккорды и текст, видео

Регистрация Запомнить меня
Войти через:  Facebook Google Twitter Vk Yandex Mail.ru

Memories - I Wanna Be That Guy - аккорды и текст, видео

Печатать
Просмотров: 82
I Wanna Be That Guy
Memories
-------------------------------------------------------------------------------
                             SONG NAME - Band Name
-------------------------------------------------------------------------------
Tabbed by: Betsy Charles
E-mail: betsycharles85@gmail.com

Tuning: Standard

Intro:

D

Verse:

                 D                    A
I wanna be that guy, I wanna be that guy for you

                 D                     A
I wanna be that high, I wanna be that high with you


Chorus:

G        A            D   B
Girl I wanna be that man

     G                 A                D
And baby, baby, baby let me hold your hand

Repeat verse and chorus 1x, then

Solo:

|--------------------------|----------------------------|
|---2h3---2h3---2h3---2h3--|-2h3---2h3--7-7-7-7-7-7-5-5-|
|--------------------------|----------------------------|
|--------------------------|----------------------------| Repeat 1x
|--------------------------|----------------------------|
|--------------------------|----------------------------|

|--10-10-9-9-7-7-5-5-3-3-2-2-0-0-2-2-|----------------------------------|
|------------------------------------|--3-3-3-3-3-3-5-5-7-7-7-7-7-7-7-7-|
|------------------------------------|----------------------------------|
|------------------------------------|----------------------------------| Repeat 1x 
|------------------------------------|----------------------------------|
|------------------------------------|----------------------------------|

|--10-10-9-9-7-7-5-5-3-3-2-2-0-0-2-2-2|
|------------------------------------3|
|------------------------------------2|
|-------------------------------------|
|-------------------------------------|
|-------------------------------------|

************************************

| /   slide up
| \   slide down
| h   hammer-on
| p   pull-off
| ~   vibrato
| +   harmonic
| x   Mute note
| b   Bend
| pb  Pre-bend
| br  Bend release
| pbr Pre-bend release
| brb Bend release bend

************************************
Добавлено: 15.11.2015
Другие материалы по этой песне:
  • Аккорды и текст

Страница создана 15.11.2015
http://primanota.ru/memories/i-wanna-be-that-guy-chords.htm
Привет, Гость.
Предлагаем пройти революционный курс по гитаре.
Подарок от PrimaNota.Ru, забирай!