PrimaNota.ru - самый крупный в мире бесплатный архив песенных текстов, аккордов, табулатур и нот


Memories - Go Down On You - таба, видео

Регистрация Запомнить меня
Войти через:  Facebook Google Twitter Vk Yandex Mail.ru

Memories - Go Down On You - таба, видео

Печатать
Просмотров: 91
Уроки эстрадного вокала в Санкт-Петербурге
-------------------------------------------------------------------------------
                             GO DOWN ON YOU - The Memories
-------------------------------------------------------------------------------
Tabbed by: Rodwell
dank little riff from a banging American band. Listen to the lyrics as well for a chuckle.
Tabbed on: 02/01/2016
E-mail: charlie_rodwell@yahoo.co.uk

Tuning:
EADGBe
e|----15------------------------15-------------------------------------------|
B|-------17-15----15-17b-15--------17-15----15-17b---------------------------|
G|-------------16-----------16-----------16----------------------------------|
D|---------------------------------------------------------------------------|
A|---------------------------------------------------------------------------|
E|---------------------------------------------------------------------------|

e|----15---------------------------------------------------------------------|
B|-------17-15----15-17b-15--------------------------------------------------|
G|-------------16-----------16--14--12--14--16--14--12-----------------------|
D|---------------------------------------------------------------------------|
A|---------------------------------------------------------------------------|
E|---------------------------------------------------------------------------|

************************************
| b   Bend
************************************
Добавлено: 26.06.2016
Вам также может быть интересно:
Другие материалы по этой песне:
  • Аккорды и текст

Страница создана 26.06.2016
http://primanota.ru/memories/go-down-on-you-chords.htm
Привет, Гость.
Предлагаем пройти революционный курс по гитаре.
Подарок от PrimaNota.Ru, забирай!