PrimaNota.ru - самый крупный в мире бесплатный архив песенных текстов, аккордов, табулатур и нот


Melvins - Those Dumb Punk Kids - таба, видео

Регистрация Запомнить меня
Войти через:  Facebook Google Twitter Vk Yandex Mail.ru

Melvins - Those Dumb Punk Kids - таба, видео

Печатать
Просмотров: 130
Уроки эстрадного вокала в Санкт-Петербурге
Title: Those dumb punk kids (will buy anything)
Artist: Jello Biafra & the Melvins
Album: Sieg Howdy
Guitarist: Buzz Osborne

Not incredibly difficult this one. There's news going round of a third biafra/
melvins album so fingers crossed.

Track 1: Electric Guitar w/dist

E|----------------------------|----------------------------|----------------------------|
B|----------------------------|----------------------------|-11---11---11---------------|
G|-3----3----3----------------|-3----3----3----------------|-10---10---10---9---9---9---|
D|-3----3----3----2---2---2---|-3----3----3----2---2---2---|-8----8----8----9---9---9---|
A|-1----1----1----2---2---2---|-1----1----1----2---2---2---|----------------7---7---7---|
E|----------------0---0---0---|----------------0---0---0---|----------------------------|


E|---------------------------------------||----------------------------------------|
B|---------------------------------------||o---------------------------------------|
G|---------------------------------------||----------------------------------------|
D|---------------------------------------||----------------------------------------|
A|---------------------5--5--7---5-------||o---------------------5--5--7---5-------|
E|-0--0--3---5--5--7-----------------7---||--0--0--3---5--5--7-----------------7---|

                                            _______________    __________  
                                           |1,2            x2 |3
E|---------------------------------------|--------|--------||-------------------------------------|
B|---------------------------------------|--------|-5-----o||-------------------------------------|
G|---------------------------------------|--------|-4------||-------------------------------------|
D|---------------------------------------|-2------|-2------||-7---7---7--7--7---7---7---7--7--7---|
A|---------------------5--5--7---5-------|-2------|-2-----o||-7---7---7--7--7---7---7---7--7--7---|
E|-0--0--3---5--5--7-----------------7---|-0------|-0------||-5---5---5--5--5---5---5---5--5--5---|


E|-------------------------------|--------------------------------|-------------------------------|
B|-------------------------------|--------------------------------|-------------------------------|
G|-------------------------------|--------------------------------|-------------------------------|
D|-9--9--9--9--9--10--10--12--12-|-7---7--7--7--7--7--7---7--7--7-|-9--9--9--9--9--10--10--12--12-|
A|-9--9--9--9--9--10--10--12--12-|-7---7--7--7--7--7--7---7--7--7-|-9--9--9--9--9--10--10--12--12-|
E|-7--7--7--7--7--8---8---10--10-|-5---5--5--5--5--5--5---5--5--5-|-7--7--7--7--7--8---8---10--10-|


E|-------------------------------------|-----------------------------------|----------------------|
B|-------------------------------------|-----------------------------------|----------------------|
G|-14--14--14-14-14--14--14--14-14-14--|-16--16--16-16-16--17--17--19--19--|-------------------9--|
D|-14--14--14-14-14--14--14--14-14-14--|-16--16--16-16-16--17--17--19--19--|-------------------9--|
A|-12--12--12-12-12--12--12--12-12-12--|-14--14--14-14-14--15--15--17--17--|-------------------7--|
E|-------------------------------------|-----------------------------------|-0---0---0--0--0------|


E|-------------------|------------------|-----------------||---------------------------------------|
B|-------------------|------------------|-----------------||o--------------------------------------|
G|----------------10-|----------------9-|---------------7-||---------------------------------------|
D|----------------10-|----------------9-|---------------7-||---------------------------------------|
A|----------------8--|----------------7-|---------------5-||o--------------------5--5--7---5--5----|
E|-0--0--0-0--0------|-0--0--0-0--0-----|-0--0--0-0--0----||--0--0--3---5--5--7------------------7-|

                                             _______________      ___________
                                            |1,2             x2  |3
E|-----------------------------------------|--------|--------||-----------------------------------|
B|-----------------------------------------|--------|-5-----o||-----------------------------------|
G|-----------7--7--9---7--7--9---7---------|--------|-4------||-----------------------------------|
D|-7--7--9---------------------------9-----|-2------|-2------||-7---7---7--7--7---7---7---7--7--7-|
A|-----------------------------------------|-2------|-2-----o||-7---7---7--7--7---7---7---7--7--7-|
E|-----------------------------------------|-0------|-0------||-5---5---5--5--5---5---5---5--5--5-|


E|-------------------------------|------------------------------|--------------------------------|
B|-------------------------------|------------------------------|--------------------------------|
G|-------------------------------|------------------------------|--------------------------------|
D|-9--9--9--9--9--10--10--12--12-|-7--7--7--7--7--7--7--7--7--7-|-9--9--9--9--9---10--10--12--12-|
A|-9--9--9--9--9--10--10--12--12-|-7--7--7--7--7--7--7--7--7--7-|-9--9--9--9--9---10--10--12--12-|
E|-7--7--7--7--7--8---8---10--10-|-5--5--5--5--5--5--5--5--5--5-|-7--7--7--7--7---8---8---10--10-|


E|-------------------------------------|-----------------------------------|---------------------|
B|-------------------------------------|-----------------------------------|---------------------|
G|-14--14--14-14-14--14--14--14-14-14--|-16--16--16-16-16--17--17--19--19--|-------------------9-|
D|-14--14--14-14-14--14--14--14-14-14--|-16--16--16-16-16--17--17--19--19--|-------------------9-|
A|-12--12--12-12-12--12--12--12-12-12--|-14--14--14-14-14--15--15--17--17--|-------------------7-|
E|-------------------------------------|-----------------------------------|-0---0---0--0--0-----|


E|----------------------|---------------------|---------------------|----------------------------|
B|----------------------|---------------------|---------------------|----------------------------|
G|-------------------10-|-------------------9-|-------------------7-|----------------------------|
D|-------------------10-|-------------------9-|-------------------7-|-------7-----7------------7-|
A|-------------------8--|-------------------7-|-------------------5-|----6-----6-----6-----6-----|
E|-0---0---0--0--0------|-0---0---0--0--0-----|-0---0---0--0--0-----|-5-----------------5--------|


E|---------------------------|----------------------------------|----------------------------------|
B|---------------------------|----------------------------------|----------------------------------|
G|---------------------------|---------14-----14-------------14-|---------14-----14-------------14-|
D|-------7-----7-----------7-|-----13------13-----13-----13-----|-----13------13-----13-----13-----|
A|----6-----6-----6-----6----|-12--------------------12---------|-12--------------------12---------|
E|-5-----------------5-------|----------------------------------|----------------------------------|


       PM---------------------------|              PM--------------------------|
E|-------------------------------------------|-------------------------------------------|
B|-------------------------------------------|-------------------------------------------|
G|-------------------------------------------|-------------------------------------------|
D|-----------------------------------5---6---|-7---------------------------------5---6---|
A|-2---2--2--2--2--2--2--2--2--2--2--5---6---|-7---2--2--2--2--2--2--2--2--2--2--5---6---|
E|-0---0--0--0--0--0--0--0--0--0--0--3---4---|-5---0--0--0--0--0--0--0--0--0--0--3---4---|


                                             PM---------------------------|
E|-----------------------------------||--------------------------------------------|
B|-----------------------------------||o-------------------------------------------|
G|-5---5---5--5--5---7---8---7---8---||--------------------------------------------|
D|-5---5---5--5--5---7---8---7---8---||------------------------------------5---6---|
A|-3---3---3--3--3---5---6---5---6---||o-2---2--2--2--2--2--2--2--2--2--2--5---6---|
E|-----------------------------------||--0---0--0--0--0--0--0--0--0--0--0--3---4---|


       PM--------------------------|
E|-------------------------------------------|-----------------------------------|
B|-------------------------------------------|-----------------------------------|
G|-------------------------------------------|-5---5---5--5--5---7---8---7---8---|
D|-7---------------------------------5---6---|-5---5---5--5--5---7---8---7---8---|
A|-7---2--2--2--2--2--2--2--2--2--2--5---6---|-3---3---3--3--3---5---6---5---6---|
E|-5---0--0--0--0--0--0--0--0--0--0--3---4---|-----------------------------------|

   _____________________                  ______________
  |1,2                               x2  |3 PM---------------------------| 
E|-----------------------------------||-------------------------------------------|
B|----------------------------------o||-------------------------------------------|
G|-5---5---5--5--5---7---8---7---8---||-------------------------------------------|
D|-5---5---5--5--5---7---8---7---8---||-----------------------------------5---6---|
A|-3---3---3--3--3---5---6---5---6--o||-2---2--2--2--2--2--2--2--2--2--2--5---6---|
E|-----------------------------------||-0---0--0--0--0--0--0--0--0--0--0--3---4---|

                                                                                x3
E|-------------------------------------------||------------------------------------||
B|-------------------------------------------||o----------------------------------o||
G|-------------------------------------------||--5---5---5--5--5---7---8---7---8---||
D|-7---------------------------------5---6---||--5---5---5--5--5---7---8---7---8---||
A|-7---2--2--2--2--2--2--2--2--2--2--5---6---||o-3---3---3--3--3---5---6---5---6--o||
E|-5---0--0--0--0--0--0--0--0--0--0--3---4---||------------------------------------||


E|---------------------------|---------------------------|---------------------------|
B|---------------------------|---------------------------|---------------------------|
G|---------------------------|---------------------------|-7----6---5----------------|
D|-7----6---5----------------|-------------------5---6---|-7----6---5-----9---8--7---|
A|---------------9---8---7---|-6----7---8----9-----------|----------------9---8--7---|
E|---------------------------|---------------------------|---------------------------|


E|---------------------||------------------------------------|-------------------------------------|
B|---------------------||o-----------------------------------|-------------------------------------|
G|----------------5--6-||------------------------------------|----------7--7--9--7--7--9---7-------|
D|-6---7---8---9--5--6-||------------------------------------|-7--7--9-------------------------9---|
A|-6---7---8---9-------||o------------------5--5--7--5--5----|-------------------------------------|
E|---------------------||--0--0--3--5--5--7----------------7-|-------------------------------------|

    _____________       ________________
   |1,2,3,4        x4  |5
E|--------|--------|||--------------------------------------|-----------------------------------||
B|--------|-5-----o|||o-------------------------------------|----------------------------------o||
G|--------|-4------|||--------------------------------------|-----------------------------------||
D|-2------|-2------|||--7---7---7--7--7---7---7---7--7--7---|-9---9---9--9--9---10--10--12--12--||
A|-2------|-2-----o|||o-7---7---7--7--7---7---7---7--7--7---|-9---9---9--9--9---10--10--12--12-o||
E|-0------|-0------|||--5---5---5--5--5---5---5---5--5--5---|-7---7---7--7--7---8---8---10--10--||

  
                                                                             Shuffle Rhythmn
                                                                               PM-------------|
E||--------------------------------------|-----------------------------------||-----------------|
B||o-------------------------------------|----------------------------------o||-----------------|
G||--14--14--14-14-14--14--14--14-14-14--|-16--16--16-16-16--17--17--19--19--||-----------------|
D||--14--14--14-14-14--14--14--14-14-14--|-16--16--16-16-16--17--17--19--19--||-----------------|
A||o-12--12--12-12-12--12--12--12-12-12--|-14--14--14-14-14--15--15--17--17-o||-----------------|
E||--------------------------------------|-----------------------------------||-0-0-3-3-5-5-7-7-|

    PM------|
E|---------------------------------|--------|--------|---------------------------------|
B|---------------------------------|--------|--------|---------------------------------|
G|---------------------------------|--------|--------|---------------------------------|
D|---------------------------------|--------|--------|---------------------------------|
A|---------------------------------|--------|--------|---------------------------------|
E|-10--10--12--12--10--10--7---7---|-5------|--------|-0---0---3---3---5---5---7---7---|


E|---------------------------------|--------|--------|
B|---------------------------------|--------|--------|
G|---------------------------------|--------|--------|
D|---------------------------------|--------|--------|
A|---------------------------------|--------|--------|
E|-10--10--12--12--10--10--7---7---|--------|--------|



| /  slide up
| \  slide down
| h  hammer-on
| p  pull-off
| ~  vibrato
| +  harmonic
| x  Mute note
===============================================================================
Note: This tab was edited by me from an ASCII file created by me from the 
tuxguitar open source tab editor for windows.
you can download it free from: http://www.tuxguitar.com.ar/
Добавлено: 10.05.2012
Другие материалы по этой песне:
  • Аккорды и текст

Страница создана 10.05.2012
http://primanota.ru/melvins/those-dumb-punk-kids-chords.htm
Привет, Гость.
Предлагаем пройти революционный курс по гитаре.
Подарок от PrimaNota.Ru, забирай!