PrimaNota.ru - самый крупный в мире бесплатный архив песенных текстов, аккордов, табулатур и нот


Melvins - Mombius Hibachi - текст песни, таба, видео

Регистрация Запомнить меня
Войти через:  Facebook Google Twitter Vk Yandex Mail.ru

Melvins - Mombius Hibachi - текст песни, таба, видео

Печатать
Просмотров: 111
Melvins - Mombius Hibachi
:: bennield@hotmail.com ::

> bend
/ slide up
\ slide down

Riff 1 (play 4 times):
e ---------------------------------|---------------------------------|
b ---------------------------------|---------------------------------|
g ---------------------5-----------|-----------------5-------5-------|
d -----------------x---5-----------|-----------------5-------5-------|
a -0---0---3---0---x---3-----------|-0---0---3---0---3-------3---0---|
D -0---0---3---0-------------------|-0---0---3---0---------------0---|


Riff 2 (play twice):
e ---------------------------------|---------------------------------|
b ---------------------------------|---------------------------------|
g ---------------------------------|---------------------------------|  
d ---------------------------------|---------------------------------|
a -0---0---5---0---5---0---0---5---|-0---5---0---5---3---5---6-------|
D -0---0---5---0---5---0---0---5---|-0---5---0---5---3---5---6-------|

e ---------------------------------|-------------------------|
b ---------------------------------|-------------------------|
g ---------------------------------|-------------------------|  
d ---------------------------------|-------------------------|
a -0---0---6---0---6---0---0---0---|-5---3-------0-------0---|
D -0---0---6---0---6---0---0---0---|-5---3-------0-------0---|

e ---------------------------------|-------------------------|
b ---------------------------------|-------------------------|
g ---------------------------------|-------------------------|  
d ---------------------------------|-------------------------|
a -5---0---5---0---0---5---0---5---|-0---5---3---5---6-------|
D -5---0---5---0---0---5---0---5---|-0---5---3---5---6-------|

e -------------------------|
b -------------------------|
g -8-----------7-----------|
d -8-----------7-----------|
a -6-----------5-----------|
D -------------------------|


Bridge (play 4 times):
e ---------------------------------|---------------------------------|
b ---------------------------------|---------------------------------|
g ---------------------------------|---------------------------------|
d -5-5-5-5-5-5---------------------|---------------------------------|
a -5-5-5-5-5-5---------------------|---------------------------------|
D ---------------------------------|---------------------------------|
             ^

Verse:
e ---------------------------------|---------------------------------|
b ---------------------------------|---------------------------------|
g ---------------------------------|---------------------------------|
d ---------------------------------|---------------------------------|
A -----5-----5-----5-----5---5---5\|-4---4-----4-----4-----4---4---4/|
D -0-0---0-0---0-0---0-0---0---0---|---0---0-0---0-0---0-0---0---0---|


Fill:
e ---------------------------------|---------------------------------|
b ---------------------------------|---------------------------------|
g ---------------------------------|---------------------------------|
d ---------------------------------|---------------------------------|
a -5---5---5---5---5---5---5---5---|-5---5---5---5---5---5---5---5---|
D -0---0---0---0---0---0---0---0---|-0---0---0---0---0---0---0---0---|


Outro:
e ---------------------------------|---------------------------------|
b ---------------------------------|---------------------------------|
g ---------------------------------|---------------------------------|  
d -0-------------------------------|---------------------------------|
a -0-------------------------------|---------------------------------|
D -0-------------------------------|---------------------------------|

e ---------------------------------|---------------------------------|
b ---------------------------------|---------------------------------|
g ---------------------------------|---------------------------------|  
d -7-------------------------------|---------------------------------|
a -5-------------------------------|---------------------------------|
D -0-------------------------------|---------------------------------|

e ---------------------------------|---------------------------------|
b ---------------------------------|---------------------------------|
g ---------------------------------|---------------------------------|  
d -5-------------------------------|-6-------------------------------|
a -3-------------------------------|-4-------------------------------|
D -0-------------------------------|-0-------------------------------|

e ---------------------------------|---------------------------------|
b ---------------------------------|---------------------------------|
g ---------------------------------|---------------------------------|  
d -3-------------------------------|-3-------------------------------|
a -1-------------------------------|-2-------------------------------|
D -0-------------------------------|-0-------------------------------|

e ---------------------------------|---------------------------------|
b ---------------------------------|---------------------------------|
g ---------------------------------|---------------------------------|  
d ---------------------------------|-3-------------------------------|
a ---------------------------------|-2-------------------------------|
D ---------------------------------|-0-------------------------------|
                                     .
Fin.
Добавлено: 24.07.2012
Другие материалы по этой песне:
  • Аккорды и текст

Страница создана 01.03.2012
http://primanota.ru/melvins/mombius-hibachi-chords.htm
Привет, Гость.
Предлагаем пройти революционный курс по гитаре.
Подарок от PrimaNota.Ru, забирай!