PrimaNota.ru - самый крупный в мире бесплатный архив песенных текстов, аккордов, табулатур и нот


Melvins - Heaviness Of The Load - текст песни, таба, видео

Регистрация Запомнить меня
Войти через:  Facebook Google Twitter Vk Yandex Mail.ru

Melvins - Heaviness Of The Load - текст песни, таба, видео

Печатать
Просмотров: 80



Date: Mon, 12 Sep 2005 12:57:40 +0100
From: Benjamin Nield 
Subject: m/melvins/heaviness_of_the_load.tab

Melvins - Heaviness Of The Load

from: Gluey Porch Treatments
 
Drop D tuning 
 
 
. = palm mute
/ = slide to
~ = vibrato
* = finger mute
 

D|-0--1--0--1--6--0--1--0--6--5--5--4--3--3--3--3--3--3--3--------
A|-0--1--0--1--6--0--1--0--6--5--5--4--3--3--3--3--3--3--3--------
D|-0--1--0--1--6--0--1--0--6--5--5--4--3--3--3--3--3--3--3--12/0--
                                          .     .  .  .
 
D|-0--1--0--4-----0--0--3--1--0--
A|-0--1--0--4-----0--0--3--1--0--
D|-0--1--0--4--3~-0--0--3--1--0--
 
D|-0--0--0--0--0--0--------
A|-0--0--0--0--0--0--------
D|-0--0--0--0--0--0--12/0--
   .     .  .  .
 
D|-0--1--0--4--3--1--1--3--1--0--0--
A|-0--1--0--4--3--1--1--3--1--0--0--
D|-0--1--0--4--3--1--1--3--1--0--0--
                  *  *
 
D|-0--0--0--0--
A|-0--0--0--0--  6x
D|-0--0--0--0--
      .  .  . 
 
D|-0--1--1--1--1--
A|-0--1--1--1--1--
D|-0--1--1--1--1--
      *  *  *
 
D|-1--1--2--3--1--1--1--1--1--4--3--
A|-1--1--2--3--1--1--1--1--1--4--3-- 4x
D|-1--1--2--3--1--1--1--1--1--4--3--
   *  *        *  *     *  *
 
Then:
 
D|-1--1--2--3--1--1--4--1--1--5--
A|-1--1--2--3--1--1--4--1--1--5--
D|-1--1--2--3--1--1--4--1--1--5--
   *  *        *  *     *  *
 
G|-------------------------10----
D|-5--5--5--5-----------6--10----
A|-5--5--5--5-----------6--8--7~-
D|-5--5--5--5-----------6--------
   .  .  .  .
 
D|-4--4--4--5--5--------3--------
A|-4--4--4--5--5--7-----3--------
D|-4--4--4--5--5-----2--3--ring--
      .  .
 
Phew.. That was the intro, now for the final part:
 
First you should play this:
 
D|-0--1--0--4--3--1--1--2--3--1--1--1--
A|-0--1--0--4--3--1--1--2--3--1--1--1--
D|-0--1--0--4--3--1--1--2--3--1--1--1--
                  *
 
Then right after, play this:
 
D|-1--1--4--3--1--1--2--3--1--1--1--
A|-1--1--4--3--1--1--2--3--1--1--1-- 6x
D|-1--1--4--3--1--1--2--3--1--1--1--
   *  *        *  *        *  *
 
D|-1--1--4--3--1--1--2--3--1--1--4--1--1--5--
A|-1--1--4--3--1--1--2--3--1--1--4--1--1--5--
D|-1--1--4--3--1--1--2--3--1--1--4--1--1--5--
   *  *        *  *        *  *     *  * 
 
D|-5--5--5--5--5--5--5-----5--0--3-----
A|-5--5--5--5--5--5--5-----5--0--3--5--
D|-5--5--5--5--5--5--5-----5--0--3-----
      .  .  .  .  .  .
 
D|-4--4--4--4--5-----------------5-----3--
A|-4--4--4--4--5-----------------5-----3--
D|-4--4--4--4--5--5--5--5--5--5--5--0--3--
                  |-----------|
                    Harmonics
 
Then it gets outta control but I've done the best I possibly could.
 
G|-6--7--7--7--7--7-----------------------------------------------------
D|-6--7--7--7--7--7--5--------------------3-----4--4--4--4--------------
A|-4--5--5--5--5--5--5--------------------3--5~-4--4--4--4--------------
D|-------------------5--5--5--5--5--5--5--3-----4--4--4--4--5--5--5--5--
                        |--------------|
                           Harmonics
 
 
G|-------7--6--5--4--------
D|-3--4--7--6--5--4--2-----
A|-3--4--5--4--3--2--0--0--
D|-3--4-----------------0--
            end here


Добавлено: 13.09.2013
Другие материалы по этой песне:
  • Аккорды и текст

Страница создана 27.05.2012
http://primanota.ru/melvins/heaviness-of-the-load-chords.htm
Привет, Гость.
Предлагаем пройти революционный курс по гитаре.
Подарок от PrimaNota.Ru, забирай!