PrimaNota.ru - самый крупный в мире бесплатный архив песенных текстов, аккордов, табулатур и нот


Melvins - Civilized Worm - текст песни, таба, видео

Регистрация Запомнить меня
Войти через:  Facebook Google Twitter Vk Yandex Mail.ru

Melvins - Civilized Worm - текст песни, таба, видео

Печатать
Просмотров: 126

Verse
 e---------------------------------------------------------------------------------|
 b---------------------------------------------------------------------------------|
 g---------------------------------------------------------------------------------|
 d--2--2--x--2--2---2--x--2/7-7---4--4--4--x--4p2----------2--2--2-----------------|
 a--2--2--x--4--4---4--x--4/5-5---4--4--4--x--4p2---2---x--4--4--4-----------------|
 e--0--0--x--0--------------------0-----------------0---x--0-----------------------|


 e---------------------------------------------------------------------------------|
 b---------------------------------------------------------------------------------|
 g------------9--9-----------------------------------------------------------------|
 d------------9--9-------5---------------------------------------------------------|
 a--2-2-2-2---7--7---5-7---7-6\----------------------------------------------------|
 e--0-0-0-0------------------------------------------------------------------------|
    . . . .

Verse
 e---------------------------------------------------------------------------------|
 b---------------------------------------------------------------------------------|
 g---------------------------------------------------------------------------------|
 d--2--2--x--2--2---2--x--2/7-7---4--4--4--x--4p2----------------------------------|
 a--2--2--x--4--4---4--x--4/5-5---4--4--4--x--4p2----------------------------------|
 e--0--0--x--0--------------------0------------------------------------------------|


 e---------------------------------------------------------------------------------|
 b---------------------------------------------------------------------------------|
 g---------------------------------------------------------------------------------|
 d--2--2--x--2--2---2--x--2/7-7---4--4--4--x--4p2----------2--2--2-----------------|
 a--2--2--x--4--4---4--x--4/5-5---4--4--4--x--4p2---2---x--4--4--4-----------------|
 e--0--0--x--0--------------------0-----------------0---x--0-----------------------|


 e---------------------------------------------------------------------------------|
 b---------------------------------------------------------------------------------|
 g------------9--9-----------------------------------------------------------------|
 d------------9--9-------5---------------------------------------------------------|
 a--2-2-2-2---7--7---5-7---7-6\----------------------------------------------------|
 e--0-0-0-0------------------------------------------------------------------------|
    . . . .

Verse
 e---------------------------------------------------------------------------------|
 b---------------------------------------------------------------------------------|
 g---------------------------------------------------------------------------------|
 d--2--2--x--2--2---2--x--2/7-7---4--4--4--x--4p2----------2--2--2-----------------|
 a--2--2--x--4--4---4--x--4/5-5---4--4--4--x--4p2---2---x--4--4--4-----------------|
 e--0--0--x--0--------------------0-----------------0---x--0-----------------------|


 e---------------------------------------------------------------------------------|
 b---------------------------------------------------------------------------------|
 g---------------------------------------------------------------------------------|
 d--2------------------------------------------------------------------------------|
 a--2------------------------------------------------------------------------------|
 e--0------------------------------------------------------------------------------|
       let ring

Verse without vox   x1


Solo
 e---------------------------------------------------------------------------------|
 b-----9----9----9----9------------------------------------------------------------|
 g--9----9----9----9----9-----7--6--7p6--7p6-----6--7p6-------9---9---9---9---9----|
 d--------------------------------------------7-----------7------------------------|
 a---------------------------------------------------------------------------------|
 e---------------------------------------------------------------------------------|


 e---------------------------------------------------------------------------------|
 b--7/--x--------------------------------------------------------------------------|
 g--7/--x--------------------------------------------------------------------------|
 d--7/--x--------------------------------------------------------------------------|
 a---------------------------------------------------------------------------------|
 e---------------------------------------------------------------------------------|
  slide up


Verse  x3

 e---------------------------------------------------------------------------------|
 b---------------------------------------------------------------------------------|
 g---------------------------------------------------------------------------------|
 d--2------------------------------------------------------------------------------|
 a--2------------------------------------------------------------------------------|
 e--0------------------------------------------------------------------------------|
       let ring

 e---------------------------------------------------------------------------------|
 b---------------------------------------------------------------------------------|
 g---------------------------------------------------------------------------------|
 d---------------------------------------------------------------------------------|
 a--12/14--14-14-14-14-14-14-14--15p14-14-14-14-14----/12-12-12-12-12--/7--7---7-7-|
 e---------------------------------------------------------------------------------|


 e---------------------------------------------------------------------------------|
 b---------------------------------------------------------------------------------|
 g--9-9-9-9-9-9-9-9-9-9-9-9-9-9-9-9-9-9-9------------------------------------------|
 d--9-9-9-9-9-9-9-9-9-9-9-9-9-9-9-9-9-9-9------------------------------------------|
 a--7-7-7-7-7-7-7-7-7-7-7-7-7-7-7-7-7-7-7------------------------------------------|
 e--0-0-0-0-0-0-0-0-0-0-0-0-0-0-0-0-0-0-0------------------------------------------|
    . . .     . . . . . .     . . . . . .

Second part  x3

 e---------------------------------------------------------------------------------|
 b---------------------------------------------------------------------------------|
 g--7---7--6-----------------------------------------------------------------------|
 d--7---7--6---2-------------------------------------------------------------------|
 a--5---5--4---2-----2-2-2-2-2-2-2-------------------------------------------------|
 e-------------0-----0-0-0-0-0-0-0-------------------------------------------------|


 e---------------------------------------------------------------------------------|
 b---------------------------------------------------------------------------------|
 g--7---7--6--7---9----------------------------------------------------------------|
 d--7---7--6--7---9---2------------------------------------------------------------|
 a--5---5--4--5---7---2-----2-2-2-2-2-2-2------------------------------------------|
 e--------------------0-----0-0-0-0-0-0-0------------------------------------------|


 e---------------------------------------------------------------------------------|
 b---------------------------------------------------------------------------------|
 g--7---7--6-----------------------------------------------------------------------|
 d--7---7--6---2-------------------------------------------------------------------|
 a--5---5--4---2-----2-2-2-2-2-2-2-------------------------------------------------|
 e-------------0-----0-0-0-0-0-0-0-------------------------------------------------|


 e---------------------------------------------------------------------------------|
 b---------------------------------------------------------------------------------|
 g--5--5-5---4--5--------9---------------------------------------------------------|
 d--5--5-5---4--5---8----9---------------------------------------------------------|
 a--3--3-3---2--3---8----7---------------------------------------------------------|
 e------------------6----0---------------------------------------------------------|


 e---------------------------------------------------------------------------------|
 b---------------------------------------------------------------------------------|
 g--9-9-9-9-9-9-9-9-9-9-9-9-9-9-9-9-9-9-9------------------------------------------|
 d--9-9-9-9-9-9-9-9-9-9-9-9-9-9-9-9-9-9-9------------------------------------------|
 a--7-7-7-7-7-7-7-7-7-7-7-7-7-7-7-7-7-7-7------------------------------------------|
 e--0-0-0-0-0-0-0-0-0-0-0-0-0-0-0-0-0-0-0------------------------------------------|
    . . .     . . . . . .     . . . . . .

End with

 e---------------------------------------------------------------------------------|
 b---------------------------------------------------------------------------------|
 g--9------------------------------------------------------------------------------|
 d--9------------------------------------------------------------------------------|
 a--7------------------------------------------------------------------------------|
 e--0------------------------------------------------------------------------------|
Добавлено: 30.04.2012
Другие материалы по этой песне:
  • Аккорды и текст

Страница создана 30.04.2012
http://primanota.ru/melvins/civilized-worm-chords.htm
Привет, Гость.
Предлагаем пройти революционный курс по гитаре.
Подарок от PrimaNota.Ru, забирай!