PrimaNota.ru - самый крупный в мире бесплатный архив песенных текстов, аккордов, табулатур и нот


Melvins - Charmicarmicat - таба, видео

Регистрация Запомнить меня
Войти через:  Facebook Google Twitter Vk Yandex Mail.ru

Melvins - Charmicarmicat - таба, видео

Печатать
Просмотров: 99
----------------------------------------------------------------------------
                            Melvins - CHARMICARMICAT
----------------------------------------------------------------------------

Riff 1:
-----------------------------------------|
-----------------------------------------!
-----------------------------------------!
-----------7----------------6------------!
--0-1---0--5-------0-1---0--4--0-0-0-0-0-!
--0-1---0----------0-1---0-----0-0-0-0-0-!

Play this riff a few times, then do this:
------------------------------------------!
------------------------------------------!
------------------------------------------!
---6--------------------------------------!
-----4---------------------------5--------!
------------------------------------------!

After 4 of those, you'll head into this main riff:
--------------------------------!--------------------------------------!
--------------------------------!--------------------------------------!
--------------------------------!--------------------------------------!
--------------------------------!--------------------------------------!
0-0-0-0-0-0-0-0-0-0-0-0-0-0-0-0-!----------6b5----6b5--------6b5---4---!
0-0-0-0-0-0-0-0-0-0-0-0-0-0-0-0-!-0-0-0-0------0-----------0-----0---0-!

The parts between the exclamation points in that last section are 
repeated while each verse sluggishly moves by.  While Buzz 
sings, play this:
17-17-17-17-17-17-17-17-17-17-17-17-17-17-17-17-!
16-16-16-16-16-16-16-16-16-16-16-16-16-16-16-16-!
------------------------------------------------!
------------------------------------------------!
------------------------------------------------!
------------------------------------------------!

Добавлено: 24.07.2012
Другие материалы по этой песне:
  • Аккорды и текст

Страница создана 24.07.2012
http://primanota.ru/melvins/charmicarmicat-chords.htm
Привет, Гость.
Предлагаем пройти революционный курс по гитаре.
Подарок от PrimaNota.Ru, забирай!