PrimaNota.ru - самый крупный в мире бесплатный архив песенных текстов, аккордов, табулатур и нот


Melvins - Captain Pungent - текст песни, таба, видео

Регистрация Запомнить меня
Войти через:  Facebook Google Twitter Vk Yandex Mail.ru

Melvins - Captain Pungent - текст песни, таба, видео

Печатать
Просмотров: 41
Авторы музыки: Buzz Osborne
Авторы текста: Buzz Osborne
Captain pungent-Melvins
From the album stag
Tabbed by ear
Standard tuning
Enjoy:)

INTRO:
|---------------------------------------------------|
|---------------------------------------------------|
|---------------------------------------------------|
|----------------------------------------9-9--12--8-|
|----------------------------------------7-7--10--6-|
|-12/--0-0--12/--0-0--12/--0-0--12/-0-0-------------|
    ^  ^
Slide  Palm mute

VERSE:                                                VERSE END:
|-------------------------------------------------     -----------------------------|
|-------------------------------------------------       ---------------------------|
|-------------------------------------------------       ---------------------------|
|-8-8-x-8-8-8--6-6-x-8-8-8--8-8-8-8-8--9-9--12--8-        --8-8-8-8-8-8-8-8-8-8-8-8-|
|-6-6-x-6-6-6--6-6-x-6-6-6--6-6-6-6-6--7-7--10--6-       ---6-6-6-6-6-6-6-6-6-6-6-6-|
|-------------------------------------------------       ---------------------------|

CHORUS:
|-----------------------------------------------------------------------------|
|-----------------------------------------------------------------------------|
|-----------------------------------------------------------------------------|
|-------------------------x-5--7-8--------------------------------------------|
|------5-5--7-7--8--7--5--x-3--5-6-------5-5--7-7--8-8--7-7--5-5--------------|
|-0-0--3-3--5-5--6--5--3------------0-0--3-3--5-5--6-6--5-5--3-3---6-5-0-3b---|

|----------------------------------------------------------------------------------------------------|
|----------------------------------------------------------------------------------------------------|
|----------------------------------------------------------------------------------------------------|
|-------------------------x-5--7-8-------------------------------------------------------------------|
|------5-5--7-7--8--7--5--x-3--5-6-------5-5--7-7--8-8--7-7--5-5-------------------------------------|
|-0-0--3-3--5-5--6--5--3------------0-0--3-3--5-5--6-6--5-5--3-3--0-3-0-3-2-0-3-0-3-2-0-3-0-3-2-0-0--|

CHORUS END:
|--------------------------------------------------------------------------|
|--------------------------------------------------------------------------|
|--------------------------------------------------------------------------|
|------------------2-0---5-2------------------------------------9-9--12-8--|
|-------------/7-------2-----5--2-------------------------------7-7--10-6--|
|-0-0-0-0-0-0----------------------5-3-0-0-0-0-0-0---12--12/---------------|


VERSE 2:                                               VERSE END:
|-------------------------------------------------     -----------------------------|
|-------------------------------------------------       ---------------------------|
|-------------------------------------------------       ---------------------------|
|-8-8-x-8-8-8--6-6-x-8-8-8--8-8-8-8-8--9-9--12--8-        --8-8-8-8-8-8-8-8-8-8-8-8-|
|-6-6-x-6-6-6--6-6-x-6-6-6--6-6-6-6-6--7-7--10--6-       ---6-6-6-6-6-6-6-6-6-6-6-6-|
|-------------------------------------------------       ---------------------------|


CHORUS 2:
|-------------------------------------------------------------------------|
|-------------------------------------------------------------------------|
|-------------------------------------------------------------------------|
|-------------------------5--7-8------------------------------------------|
|------5-5--7-7--8--7--5--3--5-6------5-5--7-7--8-8--7-7-5-5---3p2p0------|
|-0-0--3-3--5-5--6--5--3---------0-0--3-3--5-5--6-6--5-5-3-3---------3-0--|

|-------------------------------------------------------------------------|
|-------------------------------------------------------------------------|
|-------------------------------------------------------------------------|
|-------------------------5--7-8------------------------------------------|
|------5-5--7-7--8--7--5--3--5-6------5-5--7-7--8-8--7-7--5-5--3-5-3-2----|
|-0-0--3-3--5-5--6--5--3---------0-0--3-3--5-5--6-6--5-5--3-3--1-3-1-0----|

The next part is accompanied by a steel drum filtered with a wah pedal performing the fills

|-W-|---------|W-|---------------|W-|---------|W-|---------------|W-|---------|W-|---------------|
|-A-|---------|A-|---------------|A-|---------|A-|---------------|A-|---------|A-|---------------|
|-H-|---------|H-|---------------|H-|---------|H-|---------------|H-|---------|H-|---------------|
|--W|---------|-W|---------------|-W|---------|-W|---------------|-W|---------|-W|---------------|
|--A|---------|-A|---------------|-A|---------|-A|---------------|-A|---------|-A|---------------|
|--H|-0--3--0-|-H|-0--5--0--6--0-|-H|-0--3--0-|-H|-0--1--3--1--0-|-H|-0--3--0-|-H|-0--5--0--6--0-|

|-W-|---------|W-|---------------                                    |----|
|-A-|---------|A-|---------------                                    |----|although I find it impossible
|-H-|---------|H-|--------------- I find I can emulate the fill on   |----|to play the guitar part and
|--W|---------|-W|--------------- a guitar by hitting a harmonic     |----|fill at the same time.
|--A|---------|-A|--------------- on the fifth fret of the E and     |----|
|--H|-0--3--0-|-H|-0--1--3--1--0- pulsing the wah to Match.          |5+--|
                                                                         WAH WAH
BRIDGE:
|--------------------------------------------------------------------------
|--------------------------------------------------------------------------
|--------------------------------------------------------------------------
|--------------------------------------------------------------------------
|--------------------------------------------------------------------------
|-0-3-0--0-5-0-6-0---0-3-0--0-1-3-1-0--0-3-0--0-5-0-6-0--0-3-0--0-1-3-1-0--

BREAKDOWN:
|-----------------------------------------------------------|
|-----------------------------------------------------------|
|-----------------------------------------------------------|
|----7--5-----------555-444------------------4--------------|
|----5--3--7--6--5--333-222--555--444--333---2-------3------|
|-0--------5--4--3-----------333--222--111-----------1------|

LYRICS:
Daylight time of ten feel of a monster

Right here the wilds grow we ain't go a foot hold
Be nice afraid the future to be in now

Neck ties fir survive rest to be only forty nine
B-rown body sez pull in full red
Light so protect and demand but I it ride
Be damned gonna lie here all a land lone
Next size lotus alive rest to be only forty nine

Hope you enjoy:)
Добавлено: 07.10.2015
Другие материалы по этой песне:
  • Аккорды и текст

Страница создана 03.07.2012
http://primanota.ru/melvins/captain-pungent-chords.htm
Привет, Гость.
Предлагаем пройти революционный курс по гитаре.
Подарок от PrimaNota.Ru, забирай!