PrimaNota.ru - самый крупный в мире бесплатный архив песенных текстов, аккордов, табулатур и нот


Melvins - Billy Fish - текст песни, таба, видео

Регистрация Запомнить меня
Войти через:  Facebook Google Twitter Vk Yandex Mail.ru

Melvins - Billy Fish - текст песни, таба, видео

Печатать
Просмотров: 104
Уроки эстрадного вокала в Санкт-Петербурге
Quiet intro 00:25 - 00:50
e|----------------------------------|----------------------------------------|
B|----------------------------------|----------------------------------------|
G|----------------------------------|----------------------------------------|
D|-9-------------8------------------|-7----9----7---------6------------------|
A|-7-------------7------------------|-7----7----7---------7------------------|
E|----------------------------------|----------------------------------------|

e|----------------------------------|----------------------------------------|
B|----------------------------------|----------------------------------------|
G|----------------------------------|----------------------------------------|
D|-5-------------4------------------|-3----2----5---------2------------------|
A|-5-------------5------------------|-3----2----3---------0------------------|
E|----------------------------------|-3----2---------------------------------|x2

Main Riff 00:50 - 01:48
e|----------------------------------|----------------------------------------|
B|----------------------------------|----------------------------------------|
G|----------------------------------|----------------------------------------|
D|-9--9----------8-----8-8-8--------|-7----9----7---------6------6-6-6-------|
A|-7--7----------7-----7-7-7--------|-7----7----7---------7------7-7-7-------|
E|-7--7----------7-----7-7-7--------|-7----7----7---------7------7-7-7-------|

e|----------------------------------|----------------------------------------|
B|----------------------------------|----------------------------------------|
G|----------------------------------|----------------------------------------|
D|-5--5----------4-----4-4-4--------|-3----2----5---------2------2-2-2-------|
A|-5--5----------5-----5-5-5--------|-3----2----3---------0------0-0-0-------|
E|-5--5----------5-----5-5-5--------|-3----2---------------------------------|x5

Start of drum breakdown 01:48 - 01:54
e|----------------------------------|----------------------------------------|
B|----------------------------------|----------------------------------------|
G|----------------------------------|----------------------------------------|
D|-10--10--------8-----8-8-8--------|----------------------------------------|
A|-10--10--------6-----6-6-6--------|--7-7------7-7----7-7----7-7------------|
E|-8---8---------6-----6-6-6--------|--5-0------0-0----0-0----0-0------------|

Main riff repeats over verse two 02:07 - 02:42

Intro to final riff 02:42 - 02:52
e|----------------------------------|----------------------------------------|
B|----------------------------------|----------------------------------------|
G|-5-5-5-5-5------------------------|-8-8-8-8-8------------------------------|
D|-5-5-5-5-5-----5-5-5-5-5----------|-8-8-8-8-8-----------8-8-8-8-8----------|
A|-3-3-3-3-3-----5-5-5-5-5----------|-6-6-6-6-6-----------8-8-8-8-8----------|
E|---------------3-3-3-3-3----------|---------------------6-6-6-6-6----------|

e|----------------------------------|----------------------------------------|
B|----------------------------------|----------------------------------------|
G|-5-5-5-5-5------------------------|-5-5------5-5------5-5------------------|
D|-5-5-5-5-5-----5-5-5-5-5----------|-7-7------7-7------7-7------------------|
A|-3-3-3-3-3-----5-5-5-5-5----------|-7-7------7-7------7-7------------------|
E|---------------3-3-3-3-3----------|-5-5------5-5------5-5------------------|

Final riff 02:52 - 03:38
e|----------------------------------|----------------------------------------|
B|----------------------------------|----------------------------------------|
G|----------------------------------|-----------------2---------5------------|
D|-7-7-7-7-7----7-7-7-7-7------10---|---3-3-3-3-3-----2----5----5------------|
A|-7-7-7-7-7----7-7-7-7-7------10---|---3-3-3-3-3-----0----5----3------------|
E|-5-5-5-5-5----5-5-5-5-5------8----|-0-1-1-1-1-1----------3-----------------|

e|----------------------------------|----------------------------------------|
B|----------------------------------|----------------------------------------|
G|-8-8-8-8-8------------------------|-6---------5----------------------------|
D|-8-8-8-8-8-----8------------------|-6----5----5----5-----7-----------------|
A|-6-6-6-6-6-----8------------------|-4----5----3----5-----7-----------------|
E|---------------6------------------|------3---------3-----5-----------------|x4

Outro 03:38 - end
e|----------------------------------|
B|----------------------------------|
G|----------------------------------|
D|-7-7-7-7-7---------7-7-7-7-7------|
A|-7-7-7-7-7---------7-7-7-7-7------|
E|-5-5-5-5-5---------5-5-5-5-5------|x3
Добавлено: 27.07.2013
Другие материалы по этой песне:

Страница создана 09.04.2012
http://primanota.ru/melvins/billy-fish-chords.htm
Привет, Гость.
Предлагаем пройти революционный курс по гитаре.
Подарок от PrimaNota.Ru, забирай!