PrimaNota.ru - самый крупный в мире бесплатный архив песенных текстов, аккордов, табулатур и нот


Melvins - Bar-x The Rocking M - таба, видео

Регистрация Запомнить меня
Войти через:  Facebook Google Twitter Vk Yandex Mail.ru

Melvins - Bar-x The Rocking M - таба, видео

Печатать
Просмотров: 89
Уроки эстрадного вокала в Санкт-Петербурге
Corrected Green-Honey's tab, since he was quite off throughout basically the whole tab.

Drop-D

Intro - play twice:
E ---------------------------------|---------------------------------|
B ---------------------------------|---------------------------------|
G ---------------------------------|---------------------------------|
d ---------------------6-----------|----------------9----8---9-------|
a -6---8---8---8-8-8-8-4---6---5---|-6---8---8---8--7----6—--7—--9---|
D -6---8---8---8-8-8-8-----6---5---|-6---8---8---8-------------—-9---|
       x           x x                   x       x

E ---------------------------------|---------------------------------|
B ---------------------------------|---------------------------------|
G ---------------------------------|---------------------------------|
d ---------------------------------|-6-----------5-—----------4------|
a -6---8---8---8-8-8-8-9---5/6-6---|-4-----------3------------2------|
D -6---8---8---8-8-8-8-9---5/6-6---|---------------------------------|
       x                       x

Verse:

E ---------------------------------|---------------------------------|
B ---------------------------------|---------------------------------|
G ---------------------------------|---------------------------------|
d ---------------------------------|-------------4-------4---4---4---|
a -1h3-3-3-3-3-3-3---3-3-----3-3-3-|-4---4---4---2-------2---2---2---|
D -1h3-3-3-3-3-3-3---3-3-----3-3-3-|-4---4---4-----------------------|

E ---------------------------------|---------------------------------|
B ---------------------------------|---------------------------------|
g ---------------------------------|---------5-5-5-5-5-5-5-5-5-5-5---|
d ---------------------------------|---------5-5-5-5-5-5-5-5-5-5-5---|
a -1h3-3---3---3-3-3-3-3-----3-3-3-|-3-4-3---3-3-3-3-3-3-3-3-3-3-3-1-|
D -1h3-3---3---3-3-3-3-3-----3-3-3-|-3-4-3-------------------------1-|
       x           x x           x   x                             x

E ---------------------------------|---------------------------------|
B ---------------------------------|---------------------------------|
G ---------------------------------|---------------------------------|
d ---------------------------------|-------------4-------4---4---4---|
a -1h3-3-3-3-3-3-3---3-3-----3-3-3-|-4---4---4---2-------2---2---2---|
D -1h3-3-3-3-3-3-3---3-3-----3-3-3-|-4---4---4-----------------------|

E ---------------------------------|---------------------------------|
B ---------------------------------|---------------------------------|
g ---------------------------------|---------5-5-5-5-5-5-5-5-5-5-5---|
d ---------------------------------|---------5-5-5-5-5-5-5-5-5-5-5---|
a -1h3-3---3---3-3-3-3-3-----3-3-3-|-3-4-3---3-3-3-3-3-3-3-3-3-3-3-1-|
D -1h3-3---3---3-3-3-3-3-----3-3-3-|-3-4-3-------------------------1-|
       x           x x           x   x                             x


E ---------------------------------|---------------------------------|
B ---------------------------------|---------------------------------|
G ---------------------------------|---------------------------------|
d ---------------------------------|---------------------------------|
a -1h3-3---3---3-3-3-3-4---3---4---|-4---4---4---4-4-4-4-4---3---4---|
D -1h3-3---3---3-3-3-3-4---3---4---|-4---4---4---4-4-4-4-4---3---4---|
       x           x x                             x x

E ---------------------------------|---------------------------------|
B ---------------------------------|---------------------------------|
G ---------------------------------|---------------------------------|
d ---------------------------------|-------------9---let-------------|
a -1h3-3-3-3-3-3-3---3-3-----3-3-3-|-4---4---4---7---ring------------|
D -1h3-3-3-3-3-3-3---3-3-----3-3-3-|-4---4---4-----------------------|


*BASS AND WOBBLE BOARD FOR 2 BARS*

Then:

E ---------------------------------|---------------------------------|
B ---------------------------------|---------------------------------|
G ---------------------------------|---------------------------------|
d ------------------------6h8------|---------------------------------|
a -6h8-------6h8-------------------|-6h8-----------------------------| 8X
D ---------------------------------|-------------10b-----------------|


TRUMPET SOLO Backing:

E ---------------------------------|---------------------------------|
B ---------------------------------|---------------------------------|
G ---------------------------------|---------------------------------|
d -8-8-8-8-8-8-8-8-8-8-8b-(9)--8---|-8-8-8-8-8-8-8-8-8-8-8b-(9)--8---|
a -8-8-8-8-8-8-8-8-8-8-8b-(9)--8---|-8-8-8-8-8-8-8-8-8-8-8b-(9)--8---|
D -8-8-8-8-8-8-8-8-8-8-8b-(9)--8---|-8-8-8-8-8-8-8-8-8-8-8b-(9)--8---|
     x x x   x x   x x                 x x x   x x   x x

E ---------------------------------|
B ---------------------------------|
g -----6-----------6---------------|
d -6h8-6-8-8-8-6h8-6-8-6-----------|
a -6h8---8-8-8-6h8---8-6-----------| repeat the last 3 bars 4X
D -6h8---8-8-8-6h8---8-6-----------|
           x x

ONE MORE VERSE, THEN END WITH THIS:
E ---------------------------------|
B ---------------------------------|
G ---------------------------------|
d -6/(0)---------------------------|
a -6/(0)---------------------------|
D -6/(0)---------------------------|
Добавлено: 30.09.2013
Другие материалы по этой песне:
  • Аккорды и текст

Страница создана 30.09.2013
http://primanota.ru/melvins/bar-x-the-rocking-m-2-chords.htm
Привет, Гость.
Предлагаем пройти революционный курс по гитаре.
Подарок от PrimaNota.Ru, забирай!