PrimaNota.ru - самый крупный в мире бесплатный архив песенных текстов, аккордов, табулатур и нот


Melvins - At A Crawl - текст песни, таба, видео

Регистрация Запомнить меня
Войти через:  Facebook Google Twitter Vk Yandex Mail.ru

Melvins - At A Crawl - текст песни, таба, видео

Печатать
Просмотров: 110
Авторы музыки: Buzz Osborne
Авторы текста: Buzz Osborne


Artist - Melvins
Song - At A Crawl
Album - Ozma
Tabbed By an18nin18

Standard Tuning - E, A, D, G, B, E

Intro

|--------|-------------------------------------------------------|
|--------|-------------------------------------------------------|
|--------|-------------------------------------------------------|
|--------|-2-2-----2-2-----2-2-----2-2-------------------------2-|
|-6~~-6^-|-0-0-1~~-0-0-1~~-0-0-1~~-0-0-1-------------------1~~-0-|
|--------|-------------------------------3-3^--------|
         | PM.     PM.     PM.     PM.
         | Play x 3

|-------------------------|------------------------------------------|
|-------------------------|------------------------------------------|
|-------------------------|------------------------------------------|
|-3-2-222-3-222-3-222-3-2-|-3-2-3-222-3-222-3-222-3-2-2--------------|
|-1-0-000-1-000-1-000-1-0-|-1-0-1-000-1-000-1-000-1-0-0--------------|
|-------------------------|------------------------------|
      PM.   PM.   PM.     |       PM.   PM.   PM.
                          | Play x 2

|-------------------------------|
|-------------------------------|
|-------------------------------|
|-3-2-22-3-22-3-2-----3-2-2/5~~-|
|-1-0-00-1-00-1-0-5---1-0-------|
|-----------------3-------------|
      PM   PM

Verse

|-----------------------------------|-------------------------------|
|-----------------------------------|-------------------------------|
|-----------------------------------|-------------------------------|
|-----------------------------------|-------------------------------|
|-5-5-5-5-6-5-5-5-5-5-6-5-3---3-6-5-|-5-5-5-5-6-5-5-5-6-5-3---3-6-5-|
|-3-3-3-3-4-3-3-3-3-3-4-3-1---1-4-3-|-3-3-3-3-4-3-3-3-4-3-1---1-4-3-|
                                    |   PM...   PM...      
                                    | Play x 5
         1|    2,4|   3|        5|
|---------|-------|----|---------|
|---------|-------|----|---------|
|---------|-------|----|---------|
|-----5~~-|-------|----|---------|
|---------|-5-5-5-|----|---------|
|-3-3-----|-3-3-3-|-3^-|-x-x-x-x-|
  PM.       PM...

Outro
                            1|                      2|                 3|
|------------|---------------|-----------------------|------------------|
|------------|---------------|-----------------------|------------------|
|------------|---------------|--------------------4^-|-------------4-4^-|
|------------|-4~~-4-3-------|----------------4-4----|-4-4-4-3-4-5------|
|-3-3-33-4~~-|---------4-3-2-|-----------------------|------------------|
|-1-1-11-2~~-|---------------|-2-2-2-2^-2-x-x--------|------------------|
      PM     |
  Play x 3

|---------------------------|
|---------------------------|
|---------------------------|
|---------------------------|
|-4--------4--------4-6-3-4-|
|-2--2--2-4-1-2-|
 PM       PM
  Play x 3

And Thats it. 

If you have any comments on this tab or any others contact me at c.norman83@ntlworld.com.

Добавлено: 04.09.2013
Другие материалы по этой песне:
  • Аккорды и текст

Страница создана 21.05.2012
http://primanota.ru/melvins/at-a-crawl-chords.htm
Привет, Гость.
Предлагаем пройти революционный курс по гитаре.
Подарок от PrimaNota.Ru, забирай!