PrimaNota.ru - самый крупный в мире бесплатный архив песенных текстов, аккордов, табулатур и нот


Melvins - Anti-vermin Seed - текст песни, таба, видео

Регистрация Запомнить меня
Войти через:  Facebook Google Twitter Vk Yandex Mail.ru

Melvins - Anti-vermin Seed - текст песни, таба, видео

Печатать
Просмотров: 113
the melvins. the anti-vermin seed

          tabbed by
 (-(-ben.nield@gmail.com-)-)


bassline:

   1  +  2  +  3  +  4  +  1  +  2  +  3  +  4  +
G]-------------------------------------------------|
D]-------------------------------------------------|
A]-------------------------------------------------|
D]-0--0--0--0--0-----0--0-----0-----0-----0--0--0--|

G]-------------------------------------------------|
D]-------------------------------------------------|
A]-------------------------------------------------|
D]-3--------3--3/-5--5--------5--5--0--2-----2--2--|


after 7.06 mins of hypnotic bassline and various
noises, guitar plays something like this:

   1  +  2  +  3  +  4  +  1  +  2  +  3  +  4  +
e|-------------------------------------------------|
B|-------------------------------------------------|
G|-------------------------------------------------|
D|-------------------------------------------------|
A|-------------------------------------------------|
D|-------------------------------12----------------|

e|-------------------------------------------------|
B|-------------------------------------------------|
G|-------------------------------------------------|
D|-------------------------------------------------|
A|-------------------------------------------------|
D|---12\-9--9/-16-16---16\-12-12\-9--9/-12--12-----|

   1  +  2  +  3  +  4  +  1  +  2  +  3  +  4  +
e|-------------------------------------------------|
B|-------------------------------------------------|
G|-------------------------------------------------|
D|-------------------------------------------------|
A|-------------------------------------------------|
D|----------------------------------------12--12\9-|

e|-------------------------------------------------|
B|-------------------------------------------------|
G|-------------------------------------------------|
D|-------------------------------------------------|
A|-------------------------------------------------|
D|-9\-7--7------9--9h10--10p9--9-----9p-7----------|

   1  +  2  +  3  +  4  +  1  +  2  +  3  +  4  +
e|-------------------------------------------------|
B|-------------------------------------------------|
G|-------------------------------------------------|
D|-------------------------------------------------|
A|-------------------------------------------------|
D|----------------------------------------7p-9--7/-|

e|-------------------------------------------------|
B|-------------------------------------------------|
G|-------------------------------------------------|
D|-------------------------------------------------|
A|-------------------------------------------------|
D|-12-------12p13-12-12\9--9\-7--7\-5--5-----------|

   1  +  2  +  3  +  4  +  1  +  2  +  3  +  4  +
e|--------------------------------------------------|
B|--------------------------------------------------|
G|--------------------------------------------------|
D|--------------------------------------------------|
A|--------------------------------------------------|
D|------------------------------------(7p-9--7/-12--|

e|-------------------------------------------------|
B|-------------------------------------------------|
G|-------------------------------------------------|
D|-------------------------------------------------|
A|-------------------------------------------------|
D|-------------------------------------------------|

   1  +  2  +  3  +  4  +  1  +  2  +  3  +  4  +
e|-------------------------------------------------|
B|-------------------------------------------------|
G|-------------------------------------------------|
D|-------------------------------------------------|
A|-------------------------------------------------|
D|-------------------------12-12/15-------15-15/17-|

e|-------------------------------------------------|
B|-------------------------------------------------|
G|-------------------------------------------------|
D|-------------------------------------------------|
A|-------------------------------------------------|
D|-17-17\12-12-12/19-19-19\17--------17\15\12------|

continues with reverse guitar and improvisation,
followed by disembodied vocals.


at 11:44 there's a  break:

   1  +  2  +  3  +  4  +  1  +  2  +  3  +  4  +
e|-------------------------------------------------|
B|-------------------------------------------------|
G|-------------------------------------------------|
D|-7--7--7--7--7--x--10-------10-10-10-10----10-x--|
A|-5--5--5--5--5--x--8--------8--8--8--8-----10-x--|
D|-------------------------------------------------|

e|-------------------------------------------------|
B|-------------------------------------------------|
G|-------------------------------------------------|
D|-5--5--5--5--5-----10-------10-10-10-10----10-x--|
A|-3--3--3--3--3-----8--------8--8--8--8-----8--x--|
D|-------------------------------------------------|

e|----------------------------------------------------------------------|
B|----------------------------------------------------------------------|
G|----------------------------------------------------------------------|
D|-7--7--7--7--7--x--5--5--5--5--5-----4--1--4--1--4-----4-----4--------|
A|-5--5--5--5--5--x--3--3--3--3--3-----2--3--2--3--2-----2-----2-----3--|
D|----------------------------------0-----------------0-----0-----0--3--|
                                    .                 .     .     .
followed by more vocals.


outro:

   1  +  2  +  3  +  4  +  1  +  2  +  3  +  4  +
e|-------------------------------------------------|
B|-------------------------------------------------|
G|-------------------------------------------------|
D|-7--7--7--7--7-----7--7--7--7--7-----7--7--7--x--|
A|-5--5--5--5--5-----5--5--5--5--5-----5--5--5--x--|
D|-------------------------------------------------|

e|-------------------------------------------------|
B|-------------------------------------------------|
G|-------------------------------------------------|
D|-10-------10-10-10-5-----5--5--5--5--------5--5--|
A|-8--------8--8--8--3-----3--3--3--3--------3--3--|
D|-------------------------------------------------|

e|-------------------------------------------------|
B|-------------------------------------------------|
G|-------------------------------------------------|
D|-10----x--12-------7--------7--7--7--7-------xxx-|
A|-8-----x--10-------5--------5--5--5--5----5--xxx-|
D|-------------0--0--------------------------------|
               .  .

e|-------------------------------------------------|
B|-------------------------------------------------|
G|-------------------------------------------------|
D|-10-10----5-----5--5--5--7--7--7--7--7-----------|
A|-8--8-----3-----3--3--3--5--5--5--5--5-----------|
D|-------0-----------------------------------------|
         .

e|-------------------------------------------------|
B|-------------------------------------------------|
G|-------------------------------------------------|
D|-7--7--7--7--7-----7--7--7--7--7-----------------|
A|-5--5--5--5--5-----5--5--5--5--5-----------------|
D|-------------------------------------------------|

                     THE END
Добавлено: 24.07.2012
Другие материалы по этой песне:
  • Аккорды и текст

Страница создана 14.06.2012
http://primanota.ru/melvins/anti-vermin-seed-chords.htm
Привет, Гость.
Предлагаем пройти революционный курс по гитаре.
Подарок от PrimaNota.Ru, забирай!