PrimaNota.ru - самый крупный в мире бесплатный архив песенных текстов, аккордов, табулатур и нот


Melt-banana - Shield Your Eyes A Beast In The Well Of Your Hand - таба, видео

Регистрация Запомнить меня
Войти через:  Facebook Google Twitter Vk Yandex Mail.ru

Melt-banana - Shield Your Eyes A Beast In The Well Of Your Hand - таба, видео

Печатать
Просмотров: 90
Уроки эстрадного вокала в Санкт-Петербурге
For more info contact me at my Youtube channel: L Jarrett


Digitech whammy pedal set for 2 octaves above. All of these notes in
the intro are natural harmonics. "/" = start with heal down on
whammy pedal then lean to toe down to reach 2 octaves.
Listen to track for timing. It uses similar harmonics
in "Smashing Pumpkins - Zero" but in reverse. Doesn't really matter where you hit
the harmonics, so long as the pitch is gliding upwards

INTRO:

0:00 - 0:34

e|---------------------------------------------------------------------------|
B|---------------------------------------------------------------------------|
G|---------------------------------------------------------------------------|
D|--3------------------------------------------------------------------------|
A|--3--3---------------------------------------------------------------------|
E|--3--------3--------2.7-------2.5----------2.3----------2------------------|

   /        /        /          /            /           /
  /        /        /          /            /           /
 /        /        /          /            /           /
/        /        /          /            /           /

MAIN BIT: Whammy toe all the way down to 2 octaves

0:35 - 0:50

e|---0--10p0-10-10-----------------------------------------------------------|
B|---------------------------------------------------------------------------|
G|-------------------0-9p0---7-----------------------------------------------|
D|-----------------------------000000----------------------------------------| x7
A|---------------------------------------------------------------------------|
E|---------------------------------------------------------------------------|

0:50 - 0:52

e|---------------------------------------------------------------------------|
B|---------------------------------------------------------------------------|
G|---7-----------------------------------------------------------------------|
D|-----000000--0-0000000-----------------------------------------------------| x1
A|---------------------------------------------------------------------------|
E|---------------------------------------------------------------------------|


OSCILLATING BIT: You'll need an effects pedal of some description. I use a Zoom Gx5 
using the
"Step" preset which I modified. Whammy pedal still on for 2 octaves but drop it right off
after playing the open E

0:53 - 1:09

e|---------------------------------------------------------------------------|
B|---------------------------------------------------------------------------|
G|---------------------------------------------------------------------------|
D|---------------------------------------------------------------------------| x7
A|---------------------------------------------------------------------------|
E|--12-12-12-0---------------------------------------------------------------|

              \
               \
                \
                 \

e|---------------------------------------------------------------------------|
B|---------------------------------------------------------------------------|
G|---------------------------------------------------------------------------|
D|---------------------------------------------------------------------------| x1
A|---------------------------------------------------------------------------|
E|--12-12-12-0---------------------------------------------------------------|

              \       /
               \     /
                \   /
                 \ /
                  *  <--- You can hit a natural harmonic on 12th Fret E if you want


MAIN BIT AGAIN: Whammy pedal on 2 octaves above

1:09 - 1:22

e|---0--10p0-10-10-----------------------------------------------------------|
B|---------------------------------------------------------------------------|
G|-------------------0-9p0---7-----------------------------------------------|
D|-----------------------------000000----------------------------------------| x4
A|---------------------------------------------------------------------------|
E|---------------------------------------------------------------------------|


e|---------------------------------------------------------------------------|
B|---------------------------------------------------------------------------|
G|---7-----------------------------------------------------------------------|
D|-----000000--0-0000000--0-0000000--0-00000000000---------------------------| x1
A|---------------------------------------------------------------------------|
E|---------------------------------------------------------------------------|

Natural Harmonics

1:23 - 1:31

e|---------------------------------------------------------------------------|
B|---------------------------------------------------------------------------|
G|---------------------------------------------------------------------------|
D|---------------------------------------------------------------------------|
A|------3-------------------------------3------------------------------------|
E|------3--------------------------------------------------------------------|

       /                               /
      /                               /
     /                               /
    /                               /


I can't be arsed doing anymore, it's late. I doubt anyone will even see this. If you 
want the rest ask me, or
search "L Jarrett" on youtube where you can find my channel of guitar covers.
Добавлено: 29.11.2014
Вам также может быть интересно:
Другие материалы по этой песне:
  • Аккорды и текст

Страница создана 29.11.2014
http://primanota.ru/melt-banana/shield-your-eyes-a-beast-in-well-of-your-hand-chords.htm
Привет, Гость.
Предлагаем пройти революционный курс по гитаре.
Подарок от PrimaNota.Ru, забирай!