PrimaNota.ru - самый крупный в мире бесплатный архив песенных текстов, аккордов, табулатур и нот


Melt-banana - Cracked Plaster Cast - таба, видео

Регистрация Запомнить меня
Войти через:  Facebook Google Twitter Vk Yandex Mail.ru

Melt-banana - Cracked Plaster Cast - таба, видео

Печатать
Просмотров: 70
Cracked Plaster Cast - Melt Banana


Intro: (repeated through intro)
e|----------------------------||
B|----------------------------||
G|----14----14-------14----14-||
D|----------------------------||
A|-12----12-------12----12----||
E|----------------------------||

2nd Guitar: (0:04)
e|-----|-----------------------------|----------------------------|
B|-----|-----------------------------|----------------------------|
G|-----|-----------------------------|----------------------------|
D|-----|-----------------------------|--------------4-----------\-|
A|-12\-|-4~---6~----7~------/12~-----|-\4-----6-----4-----------\-|
E|-----|-----------------------------|--------------2-----------\-|

(0:18)
e|-----------------------------------------|--------------------|
B|-----------------------------------------|--------------------|
G|-14-14-14-14-14-14-14-14\6-6-6-6-8-8-8-8-|-9-9-9-9-9-9-9-9...-|
D|-----------------------------------------|--------------------|
A|-12-12-12-12-12-12-12-12\4-4-4-4-6-6-6-6-|-7-7-7-7-7-7-7-7...-|
E|-----------------------------------------|--------------------|

e|-----------------------------------------|--------------------|
B|-----------------------------------------|--------------------|
G|-14-14-14-14-14-14-14-14\6-6-6-6-8-8-8-8-|--------------------|
D|-----------------------------------------|-4------------------|
A|-12-12-12-12-12-12-12-12\4-4-4-4-6-6-6-6-|-4------------------|
E|-----------------------------------------|-2------------------|

Part 1: (0:33)                                x4
e||----------------------------------------------|
B||----------------------------------------------|
G||-/16-16-16-16\---------/16-16-----/16-16------|
D||------------------------------x-x--------x-x--|
A||-/14-14-14-14\---------/14-14-x-x-/14-14-x-x--|
E||---------------0-0-0-0--------x-x--------x-x--|

e|-----------------------------------------||
B|-----------------------------------------||
G|-14-14-14-14-14-14-14-14\6-6-6-6-8-8-8-8-||
D|-----------------------------------------||
A|-12-12-12-12-12-12-12-12\4-4-4-4-6-6-6-6-||
E|-----------------------------------------||

Part 2: (1:05)           x2                               x2                           
e|-------------16-16-------|-----16------16------16------16-|
B|-------16----------16----|---16------16------16------16---|
G|-16-16----16----------16-|-16------16------16------16-----|
D|-------------------------|--------------------------------|
A|-------------------------|--------------------------------|
E|-------------------------|--------------------------------|
                       x4
e|-------------9-9-------|
B|-------10--------10----|
G|-11-11----11--------11-|
D|-----------------------|
A|-----------------------|
E|-----------------------|

Back to Part 1

Ending:
e|-------------------------------------------------|-----------|
B|-------------------------------------------------|-----------|
G|-14-14-14-14-14-14-14-14/16-16-16-16-16-16-16-16-|-14--------|
D|-------------------------------------------------|-14--------|
A|-12-12-12-12-12-12-12-12/14-14-14-14-14-14-14-14-|-12--------|
E|-------------------------------------------------|-----------|

Part 1 Fill:
e||--16-16-16-16-----------16-16------16-16------|
B||--16-16-16-16-----------16-16------16-16------|
G||-/16-16-16-16\---------/16-16-----/16-16------|
D||------------------------------x-x--------x-x--|
A||-/14-14-14-14\-x-x-x-x-/14-14-x-x-/14-14-x-x--|
E||---------------0-0-0-0--------x-x--------x-x--|



-Part 2 has a lot of delay/repeat effects on it so its to pin down whats actually being played
-The Fill for part one sounds like a second guitar but I just tried to combine it into one
Добавлено: 19.06.2016
Другие материалы по этой песне:
  • Аккорды и текст

Страница создана 18.06.2016
http://primanota.ru/melt-banana/cracked-plaster-cast-chords.htm
Привет, Гость.
Предлагаем пройти революционный курс по гитаре.
Подарок от PrimaNota.Ru, забирай!