PrimaNota.ru - самый крупный в мире бесплатный архив песенных текстов, аккордов, табулатур и нот


Melt-banana - Blank Page Of The Blind - таба, видео

Регистрация Запомнить меня
Войти через:  Facebook Google Twitter Vk Yandex Mail.ru

Melt-banana - Blank Page Of The Blind - таба, видео

Печатать
Просмотров: 74
Tabbed by JaaaayDeeee email: jdgilbert@ntlworld.com
parts of this song might be wrong remember that Ichirou uses a lot of effects so this is 
my version

*woof woof woof woof woof ect.*

e-----------------|
B-----------------| x4
G-----------10-10-|
D-6-7-8-7-7-10-10-|
A-6-7-8-7-7-8--8--|
E-4-5-6-5-5-------|

e-11\8/11\8/11\8/11-------| It probably helps to have a slide
B-------------------------| actually can't count how many times you do this
G-------------------------| you get the gist
D-------------------------|
A-------------------------|
E-------------------------|

repeat whole thing again

CRAZY BIT
pm on the top 3 strings while sliding up
e---15---16--17--18---19--20--21-|
B--------------------------------|
G--------------------------------|
D-/----/---/---/----/---/----/---|
A-/----/---/---/----/---/----/---|
E-/----/---/---/----/---/----/---|

e-21bu-22bu-21bu-(random sliding/sound effects)|
B----------------------------------------------|
G----------------------------------------------|
D----------------------------------------------|
A----------------------------------------------|
E----------------------------------------------|


e--------------------------------|
B--------------------------------|
G-12-12----12-12----10-10/12-----|
D-10-10-10-10-10-10-8--8-/10-10--|
A-10-10-10-10-10-10-8--8-/10-10--|
E-------8--------8-----------8---|

e-------------------------|
B-------------------------|
G-12-12----10-10/12-------| x8
D-10-10-10-8--8-/10-10----|
A-10-10-10-8--8-/10-10----|
E-------8-----------8-----|

e-------------------------------------|
B-------------------------------------|
G-------------------------------------|
D-10-10-10-10-10-10-10-10-10-10-10-10-|
A-10-10-10-10-10-10-10-10-10-10-10-10-|
E-8--8--8--8--8--8--8--8--8--8--8--8--|

e---------------------------------------------|
B---------------------------------------------| x4
G----------10-10-10-10------------------------|
D--6-6-6-6-10-10-10-10-10-10-10-10-10-10-10-10|
A--6-6-6-6-8--8--8--8--10-10-10-10-10-10-10-10|
E--4-4-4-4-------------8--8--8--8--8--8--8--8-|

e---------------------------------------------------------------|
B---------------------------------------------------------------|
G---------------------------------------------10-10-10-10-------|
D-10-10-10-10-10-10-10-10-10-10-10-10-6-6-6-6-10-10-10-10-10----|
A-10-10-10-10-10-10-10-10-10-10-10-10-6-6-6-6-8--8--8--8--10----|
E-8--8--8--8--8--8--8--8--8--8--8--8--4-4-4-4-------------8-----|
Please rate Thanks
Добавлено: 19.11.2013
Другие материалы по этой песне:
  • Аккорды и текст

Страница создана 19.11.2013
http://primanota.ru/melt-banana/blank-page-of-the-blind-chords.htm
Привет, Гость.
Предлагаем пройти революционный курс по гитаре.
Подарок от PrimaNota.Ru, забирай!