PrimaNota.ru - самый крупный в мире бесплатный архив песенных текстов, аккордов, табулатур и нот


Melt Banana - Spathic - таба, видео

Регистрация Запомнить меня
Войти через:  Facebook Google Twitter Vk Yandex Mail.ru

Melt Banana - Spathic - таба, видео

Печатать
Просмотров: 67
"Spathic" By Melt-Banana
Tabed by Thomas Croskery ultimateanime99@hotmail.com
 
 
 

e------------|       e-------|
B------------|       B-------|
G--------5-2-|  x10      G-------|
D-4-2-4--3-0-|       D-4-2-4-|
A-2-0-2------|       A-2-0-2-|
E------------|       E-------|
 
rest until the part where Yasuko sings "Spathic!"
 
e--------------------------------|
B--------------------------------|
G-11-15--11s/6s/11-15--11s/6s/11-|
D--------------------------------|
A--------------------------------|
E--------------------------------|
 

then again rest untill "Spathic!"
 
e--------------------------------------------------------------|
B--------------------------------------------------------------|
G-11-15--11s/6s/11-15--11s/6s/11--15--11s/6s/11--15--11s/6s/11-|
D--------------------------------------------------------------|
A--------------------------------------------------------------|
E--------------------------------------------------------------|
 
e------------|
B------------|
G--------6-3-| x8
D-5-3-5--4-1-|
A-3-1-3------|
E------------|
 
e-------|
B-------|
G-------|
D-1s/22-|
A-------|
E-------|
 
 
 
rest again until "Spathic!"
 
e--------------------------------------------------------------|
B--------------------------------------------------------------|
G-11-15--11s/6s/11-15--11s/6s/11--15--11s/6s/11--15--11s/6s/11-|
D--------------------------------------------------------------|
A--------------------------------------------------------------|
E--------------------------------------------------------------|
 
                      rest 
e------------------------------------------------|
B------------------------------------------------|
G-11-15--11s/6s/11--------------11-15--11s/6s/11-|
D------------------------------------------------|
A------------------------------------------------|
E------------------------------------------------|
 
     Play this with lots of delay
e---11-11-11-11-10-10-9-9-9-9-8-8-8-8-13-13-14-14------|
B------------------------------------------------------|
G------------------------------------------------------|
D------------------------------------------------------|
A------------------------------------------------------|
E------------------------------------------------------|
 
e--11-11-10-10-9-9-9-9-8-8-8-8-13-13-14-14-------|
B------------------------------------------------|
G------------------------------------------------|
D------------------------------------------------|
A------------------------------------------------|
E------------------------------------------------|
 
e--11-11-10-10-9-9-9-9-8-8-8-8-13-13-14-14---------|
B--------------------------------------------------|
G--------------------------------------------------|
D--------------------------------------------------|
A--------------------------------------------------|
E--------------------------------------------------|
 
e--16-17-16-17-16-17-16-17-16-17-16-17-|
B--------------------------------------|
G--------------------------------------|
D--------------------------------------|
A--------------------------------------|
E--------------------------------------|
 

e-----|
B-----|
G-4---|
D-2-4-|  x8
A---2-|
E-----|
 

e---------|
B---------|
G---------|
D-4s/0s/4-|
A---------|
E---------|
 

e-------|
B-------|
G-------|
D-1s/22-|
A-------|
E-------|

     
Добавлено: 04.11.2013
Другие материалы по этой песне:
  • Аккорды и текст

Страница создана 06.10.2013
http://primanota.ru/melt-banana-2/spathic-chords.htm
Привет, Гость.
Предлагаем пройти революционный курс по гитаре.
Подарок от PrimaNota.Ru, забирай!