PrimaNota.ru - самый крупный в мире бесплатный архив песенных текстов, аккордов, табулатур и нот


Melt Banana - Picnic In Panic - таба, видео

Регистрация Запомнить меня
Войти через:  Facebook Google Twitter Vk Yandex Mail.ru

Melt Banana - Picnic In Panic - таба, видео

Печатать
Просмотров: 68
"Picnic in Panic" By Melt-Banana
Tabbed By Thomas Croskery ultimateanime99@hotmail.com
 

+=-------------------------------------------------------------------=+
|  -=Notes=-                                |
| Fast, lots of power chords and plam mutes and the rythms are very   |
| syncoppated sometimes but it should all be correct. Listen to the   |
| song while playing and notice the patterns. Listening should clear  |
| up any problems you have Also, pl with a distortion and a high tone.|
|                                   |
+=-------------------------------------------------------------------=+
 
Intro
 

ex2-x2-x2-x2--------|  ex2-x2-x2-x2-|
Bx2-x2-x2-x2--------|  Bx2-x2-x2-x2-|
Gx2-x2-x2-x2--------|x7: Gx2-x2-x2-x2-| 8th time
D------------4-4-4-4|  D------------|
A------------4-4-4-4|  A------------|
E------------2-2-2-2|  E------------|
 

Main riff
 
e--x2x2x2x2-------x2x2x2x2-------x2x2x2x2-----x2x2x2x2x2x2x2x2--|
B--x2x2x2x2-------x2x2x2x2-------x2x2x2x2-----x2x2x2x2x2x2x2x2--|
G--x2x2x2x2-------x2x2x2x2-------x2x2x2x2-----x2x2x2x2x2x2x2x2--|x6
D-4--------4-4-4-4--------4-4-4-4--------4-4-4------------------|
A-4--------4-4-4-4--------4-4-4-4--------4-4-4------------------|
E-2--------2-2-2-2--------2-2-2-2--------2-2-2------------------|
 
 
 
e--------------------------------|
B--------------------------------|
G--------------------------------|   x2
D------------------------8-8-5-7-|
A--7-7-7-7-7-7-7-7-7-7-7-6-6-3-5-|
E--5-5-5-5-5-5-5-5-5-5-5---------|
    (off beats)
 

e--x2x2x2x2-------x2x2x2x2-------x2x2x2x2-----x2x2x2x2x2x2x2x2--|
B--x2x2x2x2-------x2x2x2x2-------x2x2x2x2-----x2x2x2x2x2x2x2x2--|
G--x2x2x2x2-------x2x2x2x2-------x2x2x2x2-----x2x2x2x2x2x2x2x2--|x2
D-4--------4-4-4-4--------4-4-4-4--------4-4-4------------------|
A-4--------4-4-4-4--------4-4-4-4--------4-4-4------------------|
E-2--------2-2-2-2--------2-2-2-2--------2-2-2------------------|
 
 
 

e--x0x0x0x0-------x0x0x0x0-------x0x0x0x0-----x0x0x0x0x0x0x0x0--|
B--x0x0x0x0-------x0x0x0x0-------x0x0x0x0-----x0x0x0x0x0x0x0x0--|
G--x0x0x0x0-------x0x0x0x0-------x0x0x0x0-----x0x0x0x0x0x0x0x0--|x2
D-2--------2-2-2-2--------2-2-2-2--------2-2-2------------------|
A-2--------2-2-2-2--------2-2-2-2--------2-2-2------------------|
E-0--------0-0-0-0--------0-0-0-0--------0-0-0------------------|
 

e--------------------------------|
B--------------------------------|
G--------------------------------|   x2
D------------------------8-8-5-7-|
A--7-7-7-7-7-7-7-7-7-7-7-6-6-3-5-|
E--5-5-5-5-5-5-5-5-5-5-5---------|
    (off beats)
 

e--x2x2x2x2-------x2x2x2x2-------x2x2x2x2-----x2x2x2x2x2x2x2x2--|
B--x2x2x2x2-------x2x2x2x2-------x2x2x2x2-----x2x2x2x2x2x2x2x2--|
G--x2x2x2x2-------x2x2x2x2-------x2x2x2x2-----x2x2x2x2x2x2x2x2--|x2
D-4--------4-4-4-4--------4-4-4-4--------4-4-4------------------|
A-4--------4-4-4-4--------4-4-4-4--------4-4-4------------------|
E-2--------2-2-2-2--------2-2-2-2--------2-2-2------------------|
 
 
 

e--x0x0x0x0-------x0x0x0x0-------x0x0x0x0-----x0x0x0x0x0x0x0x0--|
B--x0x0x0x0-------x0x0x0x0-------x0x0x0x0-----x0x0x0x0x0x0x0x0--|
G--x0x0x0x0-------x0x0x0x0-------x0x0x0x0-----x0x0x0x0x0x0x0x0--|x2
D-2--------2-2-2-2--------2-2-2-2--------2-2-2------------------|
A-2--------2-2-2-2--------2-2-2-2--------2-2-2------------------|
E-0--------0-0-0-0--------0-0-0-0--------0-0-0------------------|
 
 
 

e--------------------------------|
B--------------------------------|
G--------------------------------|   x2
D------------------------8-8-5-7-|
A--7-7-7-7-7-7-7-7-7-7-7-6-6-3-5-|
E--5-5-5-5-5-5-5-5-5-5-5---------|
    (off beats)

     
Добавлено: 04.11.2013
Другие материалы по этой песне:
  • Аккорды и текст

Страница создана 16.10.2013
http://primanota.ru/melt-banana-2/picnic-in-panic-chords.htm
Привет, Гость.
Предлагаем пройти революционный курс по гитаре.
Подарок от PrimaNota.Ru, забирай!