PrimaNota.ru - самый крупный в мире бесплатный архив песенных текстов, аккордов, табулатур и нот


Melt Banana - Mind Thief - таба, видео

Регистрация Запомнить меня
Войти через:  Facebook Google Twitter Vk Yandex Mail.ru

Melt Banana - Mind Thief - таба, видео

Печатать
Просмотров: 73
Mind Theif by Melt-Banana
Tabbed by Thomas Croskery ultimateanime99@hotmail.com
 
 
 

e-----------------|     e--------------|
B-----------------|     B--------------|
G-----------------| x8  G--------------| play through first verse
D-----8-8-7-5-5-5-|     D---5--8--7--5-|
A-7-7-6-6-5-5-3-3-|     A-7-3--6--5--3-|
E-5-5-------------|     E-5------------|
 
e-----------------|     e--------------|
B-----------------|     B--------------|
G-----------------| x8  G--------------| play through second verse
D-----8-8-7-5-5-5-|     D---5--8--7--5-|
A-7-7-6-6-5-5-3-3-|     A-7-3--6--5--3-|
E-5-5-------------|     E-5------------|
 

e------------------------------------------------------|
B------------------------------------------------------|
G---------------------8-8--8-8--8-8--8-8--8-8--8(hold)-| after verse
D-----------7-7--7-7-----------------------------------|
A-6-6--6-6---------------------------------------------|
E------------------------------------------------------|
 

e-----------------|
B-----------------|
G-----------------|   x8
D-----8-8-7-7-5-5-|
A-7-7-6-6-5-5-3-3-|
E-5-5-------------|
 
e---|
B---|
G---|
D---|
A-7-|  Hold and let the distortion create harmonics
E-5-|
 

e-----------------|
B-----------------|
G-----------------|   x8
D-----8-8-7-7-5-5-|
A-7-7-6-6-5-5-3-3-|
E-5-5-------------|
 
e---------------------------------------|
B---------------------------------------|
G---------------------------8-8--8-8--8-|
D--------------6-6--6-6--6--------------|
A-6-6--6-6--6---------------------------|
E---------------------------------------|
 

e-----------------------------------|
B-----------------------------------|
G-----------------------------------|
D-----8-8-7-7-5-5-----8-8-7-7-5-5---|
A-7-7-6-6-5-5-3-3-7-7-6-6-5-5-3-3-7-|
E-5-5-------------5-5-------------5-|

     
Добавлено: 25.09.2013
Другие материалы по этой песне:
  • Аккорды и текст

Страница создана 25.09.2013
http://primanota.ru/melt-banana-2/mind-thief-chords.htm
Привет, Гость.
Предлагаем пройти революционный курс по гитаре.
Подарок от PrimaNota.Ru, забирай!