PrimaNota.ru - самый крупный в мире бесплатный архив песенных текстов, аккордов, табулатур и нот


Melt Banana - Free The Bee - таба, бас-таба, видео

Регистрация Запомнить меня
Войти через:  Facebook Google Twitter Vk Yandex Mail.ru

Melt Banana - Free The Bee - таба, бас-таба, видео

Печатать
Просмотров: 74
Уроки эстрадного вокала в Санкт-Петербурге
"Free the Bee" by Melt Banana
Tabbed by Thomas croskery ultimateanime99@hotmail.com
 
e-----------------------------|     e------------------|
B-----------------------------|     B------------------|
G-9s(12)-----8s(9)-----9s(8)--|     G-12s(9)---12s(9)--|
D-10s(13)----9s(10)----10s(9)-| x8     D-13s(10)--13s(10)-|
A-----------------------------|     A -----------------|
E-----------------------------|     E------------------|
 

e-------------------------------------------------------------------------|
B-------------------------------------------------------------------------|
G-------------------------------------------------------------------------|
D-10-10-10-10-10-10-------------------------------------------------------|
A-8--8--8--8--8--8--10-10-10-10-10-10-12-12-12-12-12-12-12-12-12-12-12-12-|
E-------------------8--8--8--8--8--8--10-10-10-10-10-10-10-10-10-10-10-10-|
 
e-----------------------------------------------------|
B-----------------------------------------------------|
G-----------------------------------------------------|
D-10-10-10-10-10-10-----------------------------------|
A-8--8--8--8--8--8--10-10-10-10-10-10-12--12-12-12-13-|
E-------------------8--8--8--8--8--8--10--10-10-10-11-|
 
e-------------------------------------------------------------------------|
B-------------------------------------------------------------------------|
G-------------------------------------------------------------------------|
D-10-10-10-10-10-10-------------------------------------------------------|
A-8--8--8--8--8--8--10-10-10-10-10-10-12-12-12-12-12-12-12-12-12-12-12-12-|
E-------------------8--8--8--8--8--8--10-10-10-10-10-10-10-10-10-10-10-10-|
 
e---------------------------------------------------------|
B---------------------------------------------------------|
G---------------------------------------------------------|
D-10-10-10-10-10-10---------------------------------------|
A-8--8--8--8--8--8--10-10-10-10-10-10-12--12-12-12-13--10-|
E-------------------8--8--8--8--8--8--10--10-10-10-11--8--|
 
repeat whole song so far
 
e---------------------------------|
B---------------------------------|
G-9--9--9--9--9--9--9--9--9s(12)--|
D-10-10-10-10-10-10-10-10-10s(13)-| x4
A---------------------------------|
E---------------------------------|
 
e---------------------|
B---------------------|
G-9--9--9--9--9s(12)--|
D-10-10-10-10-10s(13)-| x8
A---------------------|
E---------------------|
 
e------------------------------------------------------------|
B------------------------------------------------------------|
G-9--9--9--9--9--9--9--9--9--9--9--9--9--9--9--9--9--9s(12)--|
D-10-10-10-10-10-10-10-10-10-10-10-10-10-10-10-10-10-10s(13)-| x3
A------------------------------------------------------------|
E------------------------------------------------------------|
 
e-------------------------------------------|
B-------------------------------------------|
G-9--9--9--9--9--9--9--9---12s(9)---12s(9)--|
D-10-10-10-10-10-10-10-10--13s(10)--13s(10)-|
A-------------------------------------------|
E-------------------------------------------|
 
e-------------------------------------------------------------------------|
B-------------------------------------------------------------------------|
G-------------------------------------------------------------------------|
D-10-10-10-10-10-10-------------------------------------------------------|
A-8--8--8--8--8--8--10-10-10-10-10-10-12-12-12-12-12-12-12-12-12-12-12-12-|
E-------------------8--8--8--8--8--8--10-10-10-10-10-10-10-10-10-10-10-10-|
 
e-----------------------------------------------------|
B-----------------------------------------------------|
G-----------------------------------------------------|
D-10-10-10-10-10-10-----------------------------------|
A-8--8--8--8--8--8--10-10-10-10-10-10-12--12-12-12-13-|
E-------------------8--8--8--8--8--8--10--10-10-10-11-|
 
e-------------------------------------------------------------------------|
B-------------------------------------------------------------------------|
G-------------------------------------------------------------------------|
D-10-10-10-10-10-10-------------------------------------------------------|
A-8--8--8--8--8--8--10-10-10-10-10-10-12-12-12-12-12-12-12-12-12-12-12-12-|
E-------------------8--8--8--8--8--8--10-10-10-10-10-10-10-10-10-10-10-10-|
 
e---------------------------------------------------------|
B---------------------------------------------------------|
G---------------------------------------------------------|
D-10-10-10-10-10-10---------------------------------------|
A-8--8--8--8--8--8--10-10-10-10-10-10-12--12-12-12-13--10-|
E-------------------8--8--8--8--8--8--10--10-10-10-11--8--|
 
e-4s(14)-|
B--------|
G--------|
D--------|
A--------|
E--------|
Questions or comments? ultimateanime99@hotmail.com

     
Добавлено: 12.11.2013
Другие материалы по этой песне:
  • Аккорды и текст

Страница создана 28.07.2013
http://primanota.ru/melt-banana-2/free-the-bee-chords.htm
Привет, Гость.
Предлагаем пройти революционный курс по гитаре.
Подарок от PrimaNota.Ru, забирай!