PrimaNota.ru - самый крупный в мире бесплатный архив песенных текстов, аккордов, табулатур и нот


Melt Banana - Aquatic Bee - таба, видео

Регистрация Запомнить меня
Войти через:  Facebook Google Twitter Vk Yandex Mail.ru

Melt Banana - Aquatic Bee - таба, видео

Печатать
Просмотров: 72
"Y-Axis Aquatic Bee" by Melt-Banana
Tabbed by Thomas Croskery ultimateanime99@hotmail.com
 
This is the Discordance Axis Remix of the original song.
Not that it matters because I can't tab the part before
the intro.
 

Intro
 
e---------------------------|
B---------------------------|
G---------------------------|
D-------------------------4-|
A-4-4-4-6-4-4-4-6-4-4-4-6-2-|
E-2-2-2-4-2-2-2-4-2-2-2-4---|
 
e--------------------------------------|
B--------------------------------------|
G--------------------------------------|
D-7-6-4----7-6-4----7-6-4----12s/6s/12-|  Main Riff, play as needed
A-5-4-2-6--5-4-2-6--5-4-2-6------------|
E-------4--------4--------4------------|
 
 
 
+=---------------------------------------------=+
|                 -=Playing Tip=-               |
| After every progression, change distortions;  |
| or, using a wah-wah pedal,play the first      |
| progression than stomp the wah-wah on and     |
| all the way up, on the third progression,     |
| totally release the wah, and finnally stomp   |
| it off to play the slide part.                |
+=---------------------------------------------=+
 
 
 
The part where the bass plays "E-2-2-2-4-" about a minute
into the song, the guitar plays:
 
e---15(b)---16(b)---17(b)-|
B-------------------------|
G-------------------------|
D-------------------------|
A-------------------------|
E-------------------------|
 
Playing and bending each note after the
bass plays the riff I said before x2
 
After the high notes, the guitar gets back into the main riff
at the pickup from the intro:
 
e---|
B---|
G---|
D-4-|
A-2-|
E---|
 
back to main riff
 
ultra high guitar part ahead
 
The bass is now playing:
 
G--------------|
D--------------|
A--------------|
E-0xxxxxxxxxxx-|
 
Guitar plays:
 
e-17----13s/9----20-----15s/12-----22-----22(b)---22s/10--22(b)-22(b^v)--|
B------------------------------------------------------------------------|
G------------------------------------------------------------------------|
D------------------------------------------------------------------------|
A------------------------------------------------------------------------|
E------------------------------------------------------------------------|
 

Listen to it and you'll figure it out
 

+=----------------------------------------------------------------------=+
|     -=Putting it Together=-                       
|
| Play from the intro through the main riff and then play the main riff 
|
| just add another progression of the main riff and take out the slide. 
|
| Play that till the end of the song. It is not that complicated if you 
|
| listen to the recording.                                              
|
+=----------------------------------------------------------------------=+
 
E-mail me with any corrections or comments (I'm not sure about the
ultra-high part)
 
ultimateanime99@hotmail.com

     
Добавлено: 12.09.2013
Другие материалы по этой песне:
  • Аккорды и текст

Страница создана 12.09.2013
http://primanota.ru/melt-banana-2/aquatic-bee-chords.htm
Привет, Гость.
Предлагаем пройти революционный курс по гитаре.
Подарок от PrimaNota.Ru, забирай!