PrimaNota.ru - самый крупный в мире бесплатный архив песенных текстов, аккордов, табулатур и нот


Melon Diesel - Sabes Mentir - аккорды и текст, видео

Регистрация Запомнить меня
Войти через:  Facebook Google Twitter Vk Yandex Mail.ru

Melon Diesel - Sabes Mentir - аккорды и текст, видео

Печатать
Просмотров: 95
Sabes Mentir
Melon Diesel
TAB BY PHILIP VASQUEZ - flipsta.philip@gmail.com

Artist: Melon Diesel
Song  : Sabes Mentir
Album : Hombre en El Espejo

Check out my other tabs for Melon Diesel / Gib-grown music !

Intro: F-C-G  F-C-G Am-C F-C-G Am (pick on Am)



      F
Niegalo
         Am
Es facil para ti
Dm    C     G
Como sueles hacer
        F
Y culpame
             Am
Si eso te hace feliz
Dm        C       G
Hoy no me puedes herir



||--Pre-Chorus/Antes de Coro--||(Wah Effects - Effectos the Wah)
           F           Am
Sal de mi vista cuanto antes
       Dm           C        G
Porque no te quiero volver a ver
          F
Sal de mi vida
          Am
Cruza esa puerta
     Dm        C    G
Esta vez no te seguire



||---Chorus / Coro---||

      F  C G
Sabes mentir
      F  C G
La verdad
     Am-C  F C G
Pero es-ta vez
G                Am
Ya no te voy a creer  



Bridge
            
oh no - yeeeah                                          
F                Am -                  Dm -      C     G  - Yeahhah
------------------------------------------1------------3--------------|
------------1---0--------------------------------------3--------------|
2---2---2----------2---0---2--2--------2-----2-----0---0--------------|
--------------------------------------0-----------2-------------------|
------------------------------------------------3---------------------|
----------------------------------------------------------------------|

F                Am -                  Dm -      C     G 
-----------------------------------------1----------------------------|
---------------3/5--3--1--0----1--1---------------------0-------------|
2---2---2------------------------------2-----------0------------------|
--------------------------------------0----------2--------------------|
-----------------------------------------------3----------------------|
----------------------------------------------------------------------|


      F
Quedate
              Am
Con los recuerdos
Dm         C       G
Ya no vivo en el ayer
          F
Y me da igual
            Am
Lo que te inventes
Dm        C         G
Hoy me libre de tu red

||--Pre-Chorus/Antes de Coro--||(Wah Effects - Effectos the Wah)
           F           Am
Sal de mi vista cuanto antes
       Dm           C        G
Porque no te quiero volver a ver
          F
Sal de mi vida
          Am
Cruza esa puerta
     Dm        C    G
Esta vez no te seguire

||---Chorus / Coro---||

      F  C G
Sabes mentir
      F  C G
La verdad
     Am-C  F C G
Pero es-ta vez
G                Am
Ya no te voy a creer  

      F  C G
Sabes mentir
      F  C G
La realidad
     Am-C  F C G
Pero es-ta vez
G                Am
Ya no te voy a creer  

SOLO
F - Am - Dm - C - G x2

      F  C G
Sabes mentir
      F  C G
La verdad
     Am-C  F C G
Pero es-ta vez
G                Am
Ya no te voy a creer  

Outro
Yeah yeah
F - Am - Dm - C - G x2

C - Dm
C - open strings
Добавлено: 24.07.2012
Другие материалы по этой песне:
  • Аккорды и текст

Страница создана 24.07.2012
http://primanota.ru/melon-diesel/sabes-mentir-chords.htm
Привет, Гость.
Предлагаем пройти революционный курс по гитаре.
Подарок от PrimaNota.Ru, забирай!