PrimaNota.ru - самый крупный в мире бесплатный архив песенных текстов, аккордов, табулатур и нот


Melodys Echo Chamber - Shirim - таба, видео

Регистрация Запомнить меня
Войти через:  Facebook Google Twitter Vk Yandex Mail.ru

Melodys Echo Chamber - Shirim - таба, видео

Печатать
Просмотров: 92
-------------------------------------------------------------------------------
                             SHIRIM - Melody's Echo Chamber
-------------------------------------------------------------------------------
Tabbed by: markiiitu (and sumjor, for the bass)
E-mail: marcolucio27@gmail.com (and https://www.youtube.com/watch?v=7cjvB0S3ppc)

Tuning: Standard

The song is almost basically F, G, Em, F.

Verse
Piano:
e|-----|-----|-----|-----|
B|--1--|--3--|--0--|--1--|
G|--2--|--4--|--0--|--2--|
D|--3--|--5--|--2--|--3--|
A|-----|-----|-----|-----|
E|-----|-----|-----|-----|

Bass:
G|-----|------|-----|-----|
D|-----|------|-----|-----|
A|--8--|--10--|--7--|--8--|
E|-----|------|-----|-----|

Chorus
Guitar:
e|--x--8---x-8---x-8---x-8---x-8---|--x--10--x-10--x-10--x-10--x-12--|
B|--x--10--x-10--x-10--x-10--x-10--|--x--12--x-12--x-12--x-12--x-13--|
G|--x--10--x-10--x-10--x-10--x-10--|--x--12--x-12--x-12--x-12--x-14--|
D|--x--10--x-10--x-10--x-10--x-10--|--x--12--x-12--x-12--x-12--x-14--|
A|--x--8---x-8---x-8---x-8---x-8---|--x--10--x-10--x-10--x-10--x-12--|
E|---------------------------------|---------------------------------|

--x--7--x-7--x-7--x-7--x-7--|--x--8---x-8---x-8---x-8---x-8---|
--x--8--x-8--x-8--x-8--x-8--|--x--10--x-10--x-10--x-10--x-10--|
--x--9--x-9--x-9--x-9--x-9--|--x--10--x-10--x-10--x-10--x-10--|
--x--9--x-9--x-9--x-9--x-9--|--x--10--x-10--x-10--x-10--x-10--|
--x--7--x-7--x-7--x-7--x-7--|--x--8---x-8---x-8---x-8---x-8---|
----------------------------|---------------------------------|

Bass:
G|---------------------------|------------------------------|
D|--15-15-15----15-17-17-15--|--17-17-17-17----17-17-17-17--|
A|-----------15--------------|--------------17--------------|
E|---------------------------|------------------------------|

------------------------------|--------------------/14--------|
--14-14-14-14----14-14--------|--15-15-15-15----15-----15-15--|
--------------14--------------|--------------15---------------|
-----------------------12-12--|-------------------------------|

Solo
Bass:
G|-------------------|-------------------------|-------------------|--------------------------------|
D|-------------------|-------------------------|-------------------|------------/14-14-12-----------|
A|--8---8---8-10--8--|--10----10----10-14--12--|--7---7---7-10--9--|--8---8---8-----------14-12-10--|
E|----8---8----------|-----10----10------------|----7---7----------|----8---8-----------------------|


************************************

| /   slide up
| \   slide down
| h   hammer-on
| p   pull-off
| ~   vibrato
| +   harmonic
| x   Mute note
| b   Bend
| pb  Pre-bend
| br  Bend release
| pbr Pre-bend release
| brb Bend release bend

************************************
Добавлено: 30.11.2015
Другие материалы по этой песне:
  • Аккорды и текст

Страница создана 30.11.2015
http://primanota.ru/melodys-echo-chamber/shirim-chords.htm
Привет, Гость.
Предлагаем пройти революционный курс по гитаре.
Подарок от PrimaNota.Ru, забирай!