PrimaNota.ru - самый крупный в мире бесплатный архив песенных текстов, аккордов, табулатур и нот


Melodys Echo Chamber - Crystallized - таба, бас-таба, видео

Регистрация Запомнить меня
Войти через:  Facebook Google Twitter Vk Yandex Mail.ru

Melodys Echo Chamber - Crystallized - таба, бас-таба, видео

Печатать
Просмотров: 85
Уроки эстрадного вокала в Санкт-Петербурге
Melody's Echo Chamber - Crystallized

Tuning: Standard


The Verse riff:

e----------------------------------------------------2----2----0----0--------|
b---------5-----5-----5-----5--------2----2----0-------0----0----0----0---0--|
g-----2-----2-----2-----2----------0----0----0---0-------0----0----0----0----|
D-------5-----5-----5-----5------4----4----2------2--------------------------|
A---0--------------------------0---------------------------------------------|
E----------------------------------------------------------------------------|

Chorus:

e--------------------------------------------------------------7---------|
b-------7------7------7------7---------10------10------10----------------|
g---4------4------4------4---------6-------6--------6------6-----6---6---|
D-----5------5------5------5---------7-------7--------7------7-----7-----|
A------------------------------------------------------------------------|
E------------------------------------------------------------------------|

Outro: you have to work it out for yourself a little bit cause it's the bass part, but 
it's within the range of these notes:


e--------------------------------------------------------------|
b--------------------------------------------------------------|
g--------------------------------------------------------------|
D-----------5^7-5---------------------5^7-5-5-------7/---------|
A---0-0-0-0--------7-7-7-7---0-0-0-0-----------7-7-----0-0-0-0-|
E--------------------------------------------------------------|


Thanks for checking out my tab and please support this band by buying their album. Good Luck!
Добавлено: 26.09.2013
Другие материалы по этой песне:
  • Аккорды и текст

Страница создана 26.09.2013
http://primanota.ru/melodys-echo-chamber/crystallized-chords.htm
Привет, Гость.
Предлагаем пройти революционный курс по гитаре.
Подарок от PrimaNota.Ru, забирай!