PrimaNota.ru - самый крупный в мире бесплатный архив песенных текстов, аккордов, табулатур и нот


The Melodic - Plunge - таба, видео

Регистрация Запомнить меня
Войти через:  Facebook Google Twitter Vk Yandex Mail.ru

The Melodic - Plunge - таба, видео

Печатать
Просмотров: 119
Tuning: EADGBe

Capo 4 if playing with official-video version: https://www.youtube.com/watch?v=836pSJfWqi4
Capo 5 if playing with this "Jam in the band" version: https://www.youtube.com/watch?v=Z_XAMeEu_FQ

This tab is accurate to the "Jam in the band" version.
All numbers relative to capo position.


Intro before singing:
e --------------------------------------------------------3-----0h1p0--0----------------
B --------0h1p0--3----0h1----0h1p0---3----0h1----0h1p0----------------------0h1p0--3----
G --------------------------------------------------------------------------------------
D ----0h2-----------0--------2----------0--------2-----------0------------2-----------0-
A --0------------2--------3----------2-------0------------2------------3-----------2----
E --------------------------------------------------------------------------------------


e -------------------------------------0---0--------------------------------------------
B -0h1-----0h1p0-----3--0h1----0h1p0----------3---0h1------0h3------0h1-------0h3-------
G --------------------------------------------------------------------------------------
D ---------2---------0---------2--------------0---------2--------0--------2----------0--
A -----0----------2--------3---------------2----------0--------2--------3----------2----
E --------------------------------------------------------------------------------------

Notice that the thumb is always doing the same pattern.
If it helps, the above is based on these chords: Am, Em, C, Em


Then, when he starts singing (00:28), he will repeat this through the whole song:

      Am     "Em"     C      "Em"
e ---------------------------------------
B ----1-1-----3-3-----1-1-----3-3--------
G ----2-2-----0-0-----0-0-----0-0--------
D ---------------------------------------
A ----0-0-----2-2-----3-3-----2-2--------
E ---------------------------------------
    "Plunge your hands in the water..."
    

Until the end (3:05) where he does this kind of solo :
(This part is easier to read not-relative to capo, so "11" means fret "11" literally)

e ------13-11-----------------
B ---11-------13-11-13--9-11--
G ----------------------------
D ----------------------------   x4
A ----------------------------
E ----------------------------

Добавлено: 22.06.2015
Вам также может быть интересно:
Другие материалы по этой песне:
  • Аккорды и текст

Страница создана 22.06.2015
http://primanota.ru/melodic/plunge-chords.htm
Привет, Гость.
Предлагаем пройти революционный курс по гитаре.
Подарок от PrimaNota.Ru, забирай!