PrimaNota.ru - самый крупный в мире бесплатный архив песенных текстов, аккордов, табулатур и нот


Mellowdrone - No More Options - текст песни, таба, видео

Регистрация Запомнить меня
Войти через:  Facebook Google Twitter Vk Yandex Mail.ru

Mellowdrone - No More Options - текст песни, таба, видео

Печатать
Просмотров: 152
Уроки эстрадного вокала в Санкт-Петербурге
Artist:  M e l l o w d r o n e
Song:    No More Options
EP:      A Demonstration of Intellectual Property
Tabbed:  Daniel Dimitri Droukas
Date:    06/05/02
¯¯¯¯¯¯¯¯¯¯¯¯¯¯¯¯¯¯¯¯¯¯¯¯¯¯¯¯¯¯¯¯¯¯¯¯¯¯¯¯¯¯¯¯¯¯¯¯¯¯¯¯¯¯¯¯¯¯¯¯¯¯¯¯¯¯¯¯¯¯¯¯¯¯¯¯¯¯¯¯
¯
Tuning: Dropped D (DADGbe)
Intro- (00:05)
e||---------------------------------------------------------------------------||

b||---------------------------------------------------------------------------||

G||---------------------------------------------------------------------------||

D||--10-10-10-10-9-9-9-9-7-7-7-7-10-10-10-10-9-9-9-9-7-7-7-7-5-5-5-5-9-9-9-9--||

A||--7--7--7--7--7-7-7-7-7-7-7-7-7--7--7--7--5-5-5-5-5-5-5-5-5-5-5-5-5-5-5-5--||

D||--7--7--7--7--7-7-7-7-7-7-7-7-7--7--7--7--5-5-5-5-5-5-5-5-5-5-5-5-5-5-5-5--||

...continued...
e||----------------------------------------||---------------------------------||

b||----------------------------------------||---------------------------------||

G||----------11-11-11-11----------9-9-9-9--||---12-12-12-12-------------------||

D||----------x--x--x--x-----------x-x-x-x--||---x--x--x--x--------------------||

A||----------9--9--9--9-----------7-7-7-7--||---10-10-10-10-------------------||

D||-0-0-0-0--------------0-0-0-0----------- ||---------------------------------||
    ..pm..                ..pm..             second time this is played (00:21),
                                             the last chord is (x10x12xx)instead
                                             of (x7x9xx)
Thing (00:48)
I think this is fairly accurate. 
e||---------------------------------------------------------------------------||

b||--13--13--13--13--13--12--12--12--12--13--13--13--13------13--17--13--13---||

G||---------------------------------------------------------------------------||

D||----14--14--14--14--14--12--12--12--12--14--14--14--14--15--15--15--14--14-||

A||---------------------------------------------------------------------------||

D||---------------------------------------------------------------------------||
These are the only parts to the song (i think, i rushed through this
one).
The only variation is in the choruses jon sometimes changes the strumming
pattern
to the intro riff.
enjoy  m e l l o w d r o n e

________________________________________________________________________________
     
Добавлено: 29.07.2013
Другие материалы по этой песне:
  • Аккорды и текст

Страница создана 29.07.2013
http://primanota.ru/mellowdrone/no-more-options-chords.htm
Привет, Гость.
Предлагаем пройти революционный курс по гитаре.
Подарок от PrimaNota.Ru, забирай!