PrimaNota.ru - самый крупный в мире бесплатный архив песенных текстов, аккордов, табулатур и нот


Mellowdrone - My First Love Song - текст песни, таба, видео

Регистрация Запомнить меня
Войти через:  Facebook Google Twitter Vk Yandex Mail.ru

Mellowdrone - My First Love Song - текст песни, таба, видео

Печатать
Просмотров: 89
Artist:  M e l l o w d r o n e
Song:    My First Love Song
EP:      None as of yet
Tabbed:  Daniel Dimitri Droukas
Date:    02/09/02
¯¯¯¯¯¯¯¯¯¯¯¯¯¯¯¯¯¯¯¯¯¯¯¯¯¯¯¯¯¯¯¯¯¯¯¯¯¯¯¯¯¯¯¯¯¯¯¯¯¯¯¯¯¯¯¯¯¯¯¯¯¯¯¯¯¯¯¯
Tuning: Standard (EADGbe)
Intro - 2x (00:00)
e||-------0-------0---------2---------2-----------4-----------4----------0--||
b||-------2-------2---------2---------2-----------5-----------5----------0--||
G||-------2-------2---------2---------2-----------6-----------6----------1--||
D||-----2---2---2---2---------------------------6---6-------6---6--------2--||
A||---0-------0----------4----4-----4---4----4--------4---4-------4------2--||
E||-------------------2----------2--------2-------------2-----------2----0--||
       Amajor            F# minor             Db minor                
Emajor
      (x02220)           (244222)             (446654)               
(022100)
Thing-a-ma-bob (00:23)
e||------0-------------9--------------4----------0-------------||
b||-----2-2----------10-10-----------5-5--------0-0------------||
G||----2---2-------11-----11--------6---6------1---1-----------||
D||---2-----2----11---------11-----6-----6----2-----2----------||
A||--0-------0--9-------------9-\-4-------4--2-------2---------||
E||------------------------------------------------------------||

Chorus: (version 1 - for electric) (00:35)
(2x - on 2nd time play last chord once and let ring)
e||-----------------------------------------------------------------------||
b||-----------------------------------------------------------------------||
G||-----------------------------------------------------------------------||
D||--7-7-7-7-7-7-7-x-x--x-4-4-4-4-4-4-x-x--x-11-11-11--11-11-11-11-x-x--x-||
A||--7-7-7-7-7-7-7-x-x--x-4-4-4-4-4-4-x-x--x-11-11-11--11-11-11-11-x-x--x-||
E||--5-5-5-5-5-5-5-x-x--x-2-2-2-2-2-2-x-x--x-9--9--9---9--9--9--9--x-x--x-||
     continued on next (bar?)...
e||-------------------------------------------||
b||-------------------------------------------||
G||-------------------------------------------||
D||-2-2-2-2-2-2-2-x-x--x----------------------||
A||-2-2-2-2-2-2-2-x-x--x----------------------||
E||-0-0-0-0-0-0-0-x-x--x----------------------||

(00:58) - repeat intro
(01:20) - repeat thing-a-ma-bob
(01:32) - repeat chorus [4x]

Another Thing - (02:17)
e||---------9--------------9--------------10-----------9------10--||
b||-------10-10--------------------------------------10-10---9----||
G||-----11-----11--------10-10----------11--11------9-------9-----||
D||---11---------11----11-----11------12------12-----------9------||
A||--9---------------11---------11--12----------12----------------||
E||-----------------9-------------10------------------------------||
(02:28)
e||---------9--------------9--------------10------------10--------|| last part
b||-------10-10---------------------------------------------------|| of this i'm
G||-----11-----11--------10-10----------11--11--------11----------|| not sure
D||---11---------11----11-----11------12------12----12----12------|| about
A||--9---------------11---------11--12----------12----------12----||
E||-----------------9-------------10------------------------------||
(02:39)
e||---------9--------------9--------------10-----------9------10--||
b||-------10-10--------------------------------------10-10---9----||
G||-----11-----11--------10-10----------11--11------9-------9-----||
D||---11---------11----11-----11------12------12-----------9------||
A||--9---------------11---------11--12----------12----------------||
E||-----------------9-------------10------------------------------||
(02:50)
e||---------9--------------9--------------10---------10-----------||last part
b||-------10-10--------------------------------------x------------||isnot really
G||-----11-----11--------10-10----------11--11-------11-----------||a chord but
D||---11---------11----11-----11------12------12-----12-----------||down stroked
A||--9---------------11---------11--12----------12---12-----------||ratherslowly
E||-----------------9-------------10-----------------10-----------||
(03:06) - repeat chorus
(03:06) - not sure about the background electric, it's possibly the same
   A note on the B-string and G-string.  I'll mail and ask jon.

These are Jonathan's exact words for this song:
"Dear Daniel,
thank you again for your kind words...
the chords are:
verse:
Amajor
F# minor
Db minor
E major
Chorus:
Amajor->Ab #5
F#minor->E/F#minor
Db#5->Dmajor
Emajor"
That's it.  Any corrections please mail me at rickets@antisocial.com
__________________________________________
Lyrics:
copyright 2001,2002 boring music (ASCAP)
these lyrics came from:
http://frameseven.tripod.com
__________________________________________
ill be the boy
and you be my girly
ill write us a love song
tell us a story
you'll show it off
to all of your friends
they'll all get jealous
or atleast they'll pretend
but im sorry to say
im not the clever
i cant write words
that last you forever
so everyone
we'll all gather around
watch me deceit you
watch me crack down
all just for you
just so you know
it all falls apart now
when ever you go
bordem is sweet
but its more fun with you
i hate everybody
and you hate them too
lets have a drink
in fact make it two
because of lately ive become ????????
i did nothing wrong
but it hurts anyway
well for that i am sorry
so everyone
we'll all gather around
watch me deceit you
watch me crack down
all just for you
just so you know
it all falls apart now
when ever you go
hush
be quiet
be still
for me
its time
for us
to sleep
when ever you go
______________________________________________________________
 

 

________________________________________________________________________________
     
Добавлено: 16.11.2013
Другие материалы по этой песне:
  • Аккорды и текст

Страница создана 16.11.2013
http://primanota.ru/mellowdrone/my-first-love-song-chords.htm
Привет, Гость.
Предлагаем пройти революционный курс по гитаре.
Подарок от PrimaNota.Ru, забирай!