PrimaNota.ru - самый крупный в мире бесплатный архив песенных текстов, аккордов, табулатур и нот


Mellowdrone - Motivation - текст песни, таба, видео

Регистрация Запомнить меня
Войти через:  Facebook Google Twitter Vk Yandex Mail.ru

Mellowdrone - Motivation - текст песни, таба, видео

Печатать
Просмотров: 79
Artist:  M e l l o w d r o n e
Song:    Motivation
EP:      This is the old version, not the one released on Go Get 'Em
Tabbed:  Daniel Dimitri Droukas
Date:    11/29/02  revised 12/26/02
¯¯¯¯¯¯¯¯¯¯¯¯¯¯¯¯¯¯¯¯¯¯¯¯¯¯¯¯¯¯¯¯¯¯¯¯¯¯¯¯¯¯¯¯¯¯¯¯¯¯¯¯¯¯¯¯¯¯¯¯¯¯¯¯¯¯¯¯¯¯¯¯¯¯¯¯¯¯¯¯
¯
Tuning:  Dropped D tuned full step down (CGCFAD)
This is tabbed mostly from a live recording of the song.
Intro- (00:00)
d||-------------10---8-7-------||
a||---8-8-8-8-7----------------||
F||----------------------------||
C||----------------------------||
G||----------------------------||
C||----------------------------||
Intro- (00:00)
d||---------------------------------------------------------------------------||

a||---------------------------------------------------------------------------||

F||---------------------------------------------------------------------------||

C||-4--4--4-4-4-10-10-10-10-10-9-9-9--9--9--9-9-9--9-9------------------------||

G||-0--0--0-0-0-7--7--7--7--7--5-5-5--5--5--5-5-5--5-5------------------------||

C||-0--0--0-0-0-7--7--7--7--7--5-5-5--5--5--5-5-5--5-5------------------------||
This part is also accompanied by Jon strumming muted chords.
when done live, this part is looped.  But when jon plays over it he plays
this
followed by:
d||---------------------------------------------------------------------------||

a||---------------------------------------------------------------------------||

F||---------------------------------------------------------------------------||

C||-4--4--4-4-4-10-10-10-10-10-5-5-5--5--5--5-5-5--5-5------------------------||

G||-0--0--0-0-0-7--7--7--7--7--5-5-5--5--5--5-5-5--5-5------------------------||

C||-0--0--0-0-0-7--7--7--7--7--5-5-5--5--5--5-5-5--5-5------------------------||
This little diddy is found all throughout the song...BUT...
...on the mp3 version i think he plays it an octave higher.
What's written is what he plays on the live version
d||--3-2------------3-2--------2----------------------------------------------||

a||------3--1-----------3--1------3-------------------------------------------||

F||-----------2---(0)--------2------------------------------------------------||

C||---------------------------------------------------------------------------||

G||---------------------------------------------------------------------------||

C||---------------------------------------------------------------------------||
Slow Down - (02:17)  Play twice then... ---->            ...play this.
d||-----------------------------------------------||--------------------------||

a||-----------------------------------------------||--------------------------||

F||-----------------------------------------------||---11-11---11-11--11-11---||

C||----12------12-----4-------10------12-----12---||---x--x----x--x---x--x----||

G||---9-------8------0------10-------9------8-----||---9--9----9--9---9--9----||

C||-9-----9p8-----8p0---0h10-----10p9----9p8------||-0-0--0--0-0--0-0-0--0----||
 

________________________________________________________________________________
     
Добавлено: 02.12.2013
Другие материалы по этой песне:
  • Аккорды и текст

Страница создана 02.12.2013
http://primanota.ru/mellowdrone/motivation-chords.htm
Привет, Гость.
Предлагаем пройти революционный курс по гитаре.
Подарок от PrimaNota.Ru, забирай!