PrimaNota.ru - самый крупный в мире бесплатный архив песенных текстов, аккордов, табулатур и нот


Mellowdrone - Lovely Jubelys - таба

Регистрация Запомнить меня
Войти через:  Facebook Google Twitter Vk Yandex Mail.ru

Mellowdrone - Lovely Jubelys - таба

Печатать
Просмотров: 53
Artist:  M e l l o w d r o n e
Song:    Lovelyjubelys
EP:      None
Tabbed:  Daniel Dimitri Droukas
Date:    01/06/03
¯¯¯¯¯¯¯¯¯¯¯¯¯¯¯¯¯¯¯¯¯¯¯¯¯¯¯¯¯¯¯¯¯¯¯¯¯¯¯¯¯¯¯¯¯¯¯¯¯¯¯¯¯¯¯¯¯¯¯¯¯¯¯¯¯¯¯¯¯¯¯¯¯¯¯¯¯¯¯¯
¯
Tuning: Standard
Intro- (00:00)
e||----------3--3-3--5--5-5--5--5-5------------||
b||----------3--3-3--5--5-5--5--5-5------------||
G||----------3--3-3--5--5-5--5--5-5------------||
D||--3--3-3--5--5-5--7--7-7--7--7-7------------||
A||--3--3-3--5--5-5--7--7-7--7--7-7------------||
E||--1--1-1--3--3-3--5--5-5--5--5-5------------||
Verse- (00:07)
e||-----0-----0------0-----0-----------||
b||-----1-----1------1-----1-----------||
G||-----0-----0------0-----0-----------||
D||-----2-----2------2-----2-----------||
A||-3-3-3-----3--3-3-3-----3-----------||
E||-------3-3-3--------3-3-3-----------||
...i've got some lovely jubelys in my place
Chorus- (00:16)
part 1
e||--1--1-1--3--3-3--5--5-5--6--6-6--8---8--8---------||
b||--1--1-1--3--3-3--5--5-5--6--6-6--8---8--8---------||
G||--2--2-2--4--4-4--5--5-5--7--7-7--9---9--9---------||
D||--3--3-3--5--5-5--7--7-7--8--8-8--10--10-10--------||
A||--3--3-3--5--5-5--7--7-7--8--8-8--10--10-10--------||
E||--1--1-1--3--3-3--5--5-5--6--6-6--8---8--8---------||
part2
e||--1--1-1--3--3-3--5--5-5--6--6-6--5--5-5--3--3-3--||
b||--1--1-1--3--3-3--5--5-5--6--6-6--5--5-5--3--3-3--||
G||--2--2-2--4--4-4--5--5-5--7--7-7--5--5-5--4--4-4--||
D||--3--3-3--5--5-5--7--7-7--8--8-8--7--7-7--5--5-5--||
A||--3--3-3--5--5-5--7--7-7--8--8-8--7--7-7--5--5-5--||
E||--1--1-1--3--3-3--5--5-5--6--6-6--5--5-5--3--3-3--||
then back to verse
then part 2 of chorus
then end on:
e||--0----------||
b||--1----------||
G||--3----------||
D||--2----------||
A||--3----------||
E||--0----------||
 

________________________________________________________________________________
     
Добавлено: 30.11.2013
Другие материалы по этой песне:
  • Аккорды и текст

Страница создана 28.08.2013
http://primanota.ru/mellowdrone/lovely-jubelys-chords.htm
Привет, Гость.
Предлагаем пройти революционный курс по гитаре.
Подарок от PrimaNota.Ru, забирай!