PrimaNota.ru - самый крупный в мире бесплатный архив песенных текстов, аккордов, табулатур и нот


Mellowdrone - Beautiful Day - текст песни, таба, бас-таба, видео

Регистрация Запомнить меня
Войти через:  Facebook Google Twitter Vk Yandex Mail.ru

Mellowdrone - Beautiful Day - текст песни, таба, бас-таба, видео

Печатать
Просмотров: 144
Artist:  M e l l o w d r o n e
Song:    Beautiful Day (the newer version)
EP:      none as of yet, but old one is on A.D.O.I.P.
Tabbed:  Daniel Dimitri Droukas
Date:    05/05/03
Note:    This is from the KCRW "Morning Becomes Eclectic" performance,
aired on
         04/22-23/03
¯¯¯¯¯¯¯¯¯¯¯¯¯¯¯¯¯¯¯¯¯¯¯¯¯¯¯¯¯¯¯¯¯¯¯¯¯¯¯¯¯¯¯¯¯¯¯¯¯¯¯¯¯¯¯¯¯¯¯¯¯¯¯¯¯¯¯¯¯¯¯¯¯¯¯¯¯¯¯¯
¯
Tuning: Standard full step down (DGCFad)
chords:         (x02210), (x32010), (133211), (022100)
Chord SHAPES:    Am        Cmaj      Fmaj      Emaj
Intro- (00:00)
d||-----0-------0-------1-----------------------------------------------||
a||----1-1-----1-1------------------------------------------------------||
F||---2---2---0---0----2-2-----2---1------------------------------------||
C||--2-----2-2-----2--3---3---3---2-------------------------------------||
G||-0-------3--------3-----3-3---2--------------------------------------||
D||-----------------1-------1---0---------------------------------------||
overlay 01 -
d||---5---5---5---5---8---8---8---8---8---5---5---5---5---5---5---5---5-||
a||-----5---5---5---5---5---5---5---5---4---4---4---4---4---4---4---4---||
F||---------------------------------------------------------------------||
C||---------------------------------------------------------------------||
G||---------------------------------------------------------------------||
D||---------------------------------------------------------------------||
overlay 02 -
d||---------------------------------------------------------------------||
a||----15--15--17--13------10--10---------------------------------------||
F||---------------------------------------------------------------------||
C||---------------------------------------------------------------------||
G||---------------------------------------------------------------------||
D||---------------------------------------------------------------------||
overlay 03 -
d||-0-0-0-0------0-0-0-0------1-1-1-1------0-0-0-0----------------------||
a||-1-1-1-1------1-1-1-1------1-1-1-1------0-0-0-0----------------------||
F||-2-2-2-2------0-0-0-0------2-2-2-2------1-1-1-1----------------------||
C||-2-2-2-2------2-2-2-2------3-3-3-3------2-2-2-2----------------------||
G||-0-0-0-0------3-3-3-3------3-3-3-3------2-2-2-2----------------------||
D||-0-0-0-0-etc--0-0-0-0-etc--1-1-1-1-etc--0-0-0-0-etc------------------||
     p.m.         p.m.          p.m.        p.m.

________________________________________________________________________________
     
Добавлено: 16.08.2013
Другие материалы по этой песне:
  • Аккорды и текст

Страница создана 26.04.2012
http://primanota.ru/mellowdrone/beautiful-day-chords.htm
Привет, Гость.
Предлагаем пройти революционный курс по гитаре.
Подарок от PrimaNota.Ru, забирай!