PrimaNota.ru - самый крупный в мире бесплатный архив песенных текстов, аккордов, табулатур и нот


Mellowdrone - And Repeat - текст песни, таба, видео

Регистрация Запомнить меня
Войти через:  Facebook Google Twitter Vk Yandex Mail.ru

Mellowdrone - And Repeat - текст песни, таба, видео

Печатать
Просмотров: 85
Artist:  M e l l o w d r o n e
Song:    And Repeat
EP:      A Demonstration of Intellectual Property
Tabbed:  Daniel Dimitri Droukas
Date:    06/14/02   (revised 11/30/02)
¯¯¯¯¯¯¯¯¯¯¯¯¯¯¯¯¯¯¯¯¯¯¯¯¯¯¯¯¯¯¯¯¯¯¯¯¯¯¯¯¯¯¯¯¯¯¯¯¯¯¯¯¯¯¯¯¯¯¯¯¯¯¯¯¯¯¯¯¯¯¯¯¯¯¯¯¯¯¯¯
¯
Tuning: Standard tuning then full step down (DGCFad)
Intro- (00:00)
This is played pretty much throughout the entire song on the album
version
d||---------------------------------------------------------------------------||

a||---------------------------------------------------------------------------||

F||---------------------------------------------------------------------------||

C||--7--------7--5------5--6~~~-7p6--6----------------------------------------||

G||-----7--4-------7--3-------------------------------------------------------||

D||---------------------------------------------------------------------------||

Background high notes - (00:06)
d||-17----17----15----15----16----16-------------------------||
a||----14----14----13----13----12----12----------------------||
F||----------------------------------------------------------||
C||----------------------------------------------------------||
G||----------------------------------------------------------||
D||----------------------------------------------------------||

Supporting Riff Version 1 (clean acoustic) - (00:06)
d||--5---5--5---0---0--0--0--0---0--0--0------------------||  This
version is played
a||--5---5--5---1---1--1--1--0---0--0--0------------------||  on  A
Demonstration
F||--6---6--6---0---0--0--0--1---1--1--1------------------||  Of
Intellectual Property
C||--7---7--7---2---2--2--2--2---2--2--2------------------|| 
G||--7---7--7---3---3--3--3--2---2--2--2------------------||
D||--5---5--5---3---3--3--3--0---0--0--0------------------||
     
Supporting Riff Version 2 (clean acoustic) - (00:06)
d||--0---0--0---0---0--0--0--0---0--0--0------------------||  Thisversionis used
a||--2---2--2---1---1--1--1--0---0--0--0------------------|| livedincoordination
F||--2---2--2---0---0--0--0--1---1--1--1------------------||  withVersion 1above
C||--2---2--2---2---2--2--2--2---2--2--2------------------||
G||--0---0--0---3---3--3--3--2---2--2--2------------------||
D||--0---0--0---3---3--3--3--0---0--0--0------------------||
 
Chorus (Distorted Electric) - (01:01)
Same as supporting riff
 
Live version looped sample:
Same as supporting riff version one but plays notes individually
The order isn't precisely correct, but it gives you the idea.
d||------5--------0-------0-------0-----------------------||
a||------------------------0-------0----------------------||
F||-----6-6------0-0-----1--1----1--1---------------------||
C||----7---7----2---2---2----2--2-------------------------||
G||---7-----7--3-----3-2-------2--------------------------||
C||--5--------3-------0-------0---------------------------||
Live Version higher note progression from above: (?)
d||------5---------8-------------12-----------------------||
a||--------------------------------12---------------------||
F||-----6-6-------9-9----------13----13-------------------||
C||----7---7----10---10------14--------14-----------------||
G||---7-----7-10-------10--14-----------------------------||
D||--5-------8-----------12-------------------------------||
 

________________________________________________________________________________
     
Добавлено: 30.08.2013
Другие материалы по этой песне:
  • Аккорды и текст

Страница создана 30.08.2013
http://primanota.ru/mellowdrone/and-repeat-chords.htm
Привет, Гость.
Предлагаем пройти революционный курс по гитаре.
Подарок от PrimaNota.Ru, забирай!