PrimaNota.ru - самый крупный в мире бесплатный архив песенных текстов, аккордов, табулатур и нот


Mellow - Shinda Shima - таба, видео

Регистрация Запомнить меня
Войти через:  Facebook Google Twitter Vk Yandex Mail.ru

Mellow - Shinda Shima - таба, видео

Печатать
Просмотров: 149
Chords all played in Barre form: Em, D, C, B

-----------------------------------------------------------------------|
-8---8--8---8----10---10--10---10--------------------------------------|
---9------9---9-----7--------7----7--9----9--9----9-----8---8--8---8---|
---------------------------------------10------10---10----9------9---9-|
-----------------------------------------------------------------------|
-----------------------------------------------------------------------|

  Em                     D        C
I went one day to Shinda Shima, a place which is supposed to be
  B
A land of things and happiness
  Em                     D        C
I went one day to Shinda Shima, a place which is from out to be
  B                Em        D      C   B         Em        C
A land of desolation, Shinda Shima          Shinda Shim...
       C           B
Do you think I can trust you? Do you think I can trust you?

-------------------------------------------------------------------------------------------------|
-------------------------------------------------------------------------------------------------|
-11h12p11h12p11---------11h12p11h12p11-----------------------------------------------------------|
-------------------------------------------------12---12-12h14-14---14-13h14p13---------13-14-16-|
-------------------14-----------------12---12s14--------------------------------14---14----------|
-------------------------------------------------------------------------------------------------|

------------------------------------------------------------------------------------------------|
------------------------------------------------------------------------------------------------|
-11h12p11h12p11---------11h12p11h12p11-------------------11-11----------------------------------|
-------------------14------------------13s12--12s14-14---------14--13h14p13--------13h14-14s16--|
----------------------------------------------------------------------------14--14--------------|
------------------------------------------------------------------------------------------------|

  Em                     D        C
I went one day to Shinda Shima, I saw some people suffering
    B
And children crying every day
  Em                     D        C
I went one day to Shinda Shima, I think I'll never go again
  B                  Em        D
A place of disillusion, Shinda Shima
       C           B            Em     D
Do you think I can trust Shinda Shim...
       C           B
Do you think I can trust you?
Добавлено: 19.07.2012
Другие материалы по этой песне:
  • Аккорды и текст

Страница создана 19.07.2012
http://primanota.ru/mellow/shinda-shima-chords.htm
Привет, Гость.
Предлагаем пройти революционный курс по гитаре.
Подарок от PrimaNota.Ru, забирай!