PrimaNota.ru - самый крупный в мире бесплатный архив песенных текстов, аккордов, табулатур и нот


Melissa Ferrick - Don t say goodbye - таба, видео

Регистрация Запомнить меня
Войти через:  Facebook Google Twitter Vk Yandex Mail.ru

Melissa Ferrick - Don t say goodbye - таба, видео

Печатать
Просмотров: 88


Don't Say Goodbye
Artist- Melissa Ferrick
CD- Everything I Need
Standard Tuning
This is the basic pattern-(Em and C)
Play slightly muted

e|---------------------------------------------------------------------------
B|---0-------0---------0-------0---------1---------1---------1---------1-----
G|-----0-------0-0-------0-0-----0-0-------0-0-------0-0-------0-0-------0---
D|-2-----2-2-------0h2-------2-------0h2-------0h2-------0h2-------0h2-----2-
A|-2-------2-------2---------0-------0h3-------3---------3---------3---------
E|-0-------0-------0---------0-----------------------------------------------

cont'd-

e-----------------------------------------------------------------------------|
B-----0-------0---------0-------0---------1---------1---------1---------1-----|
G-------0-------0-0-------0-0-----0-0-------0-0-------0-0-------0-0-------0---|
D-2-------2-2-------0h2-------2-------0h2-------0h2-------0h2-------0h2-----2-|
A-0h2-------2-------2---------0-------0h3-------3---------3---------3---------|
E-0---------0-------0---------0-----------------------------------------------|
Key:
h= hammer-on 

Добавлено: 28.12.2013
Другие материалы по этой песне:
  • Аккорды и текст

Страница создана 28.12.2013
http://primanota.ru/melissa-ferrick/don-t-say-goodbye-chords.htm
Привет, Гость.
Предлагаем пройти революционный курс по гитаре.
Подарок от PrimaNota.Ru, забирай!