PrimaNota.ru - самый крупный в мире бесплатный архив песенных текстов, аккордов, табулатур и нот


Melian - Memento Vivere - таба, видео

Регистрация Запомнить меня
Войти через:  Facebook Google Twitter Vk Yandex Mail.ru

Melian - Memento Vivere - таба, видео

Печатать
Просмотров: 51
1- Memento Vivere

Guitarra 1


/------------------------------------------------------------------------|
/------------------------------------------------------------------------|
/------------------------------------------------------------------------|
/------------------------------------------------------------------------|    x2
/--5---5---5---5--5-------------------5---5-----5---5-5------------------|
/----0---0---0-------0-2-3-5-3-2-0------0----0----0------0-0-0-0---------|

/------------------------------------|
/------------------------------------|
/------------------------------------|
/------------------------------------|  x5
/------------------------------------|
/--0-0-0-0--3-2-0-2-3-5-3-2-0--------|

/---------------------------------------------------------------|
/---------------------------------------------------------------|
/---------------------------------------------------------------|
/---------------------------------------------------------------|
/---------------------------------------------------------------|             x2
/-0-0-0-0-1-0-0-0-0-0-0-1-0-0-0-0-0-0-1-0-0-5-0--7-0-5-0-3------|

/-----------------------------------------------------------|
/-----------------------------------------------------------|
/-----------------------------------------------------------|
/---7--5---12---11---------/--0-----8---3---5-----/---------|
/----------8----7----------/--0-----8---3---5--x2-/---------|
/----------8----7----5-----/--0-----8---3---5-----/---------|

/------------------------------------------------------------------------|
/------------------------------------------------------------------------|
/------------------------------------------------------------------------|
/------------------------------------------------------------------------|    x2
/--5---5---5---5--5-------------------5---5-----5---5-5------------------|
/----0---0---0-------0-2-3-5-3-2-0------0----0----0------0-0-0-0---------|

/------------------------------------|
/------------------------------------|
/------------------------------------|
/------------------------------------|  x5
/------------------------------------|
/--0-0-0-0--3-2-0-2-3-5-3-2-0--------|

/--------------------|
/--------------------|
/--------------------|
/--0-------0---------|
/--0-------0---------|
/--0-------0---------|

/---------------------------------------------------------------|
/---------------------------------------------------------------|
/---------------------------------------------------------------|
/---------------------------------------------------------------|   x4
/---------------------------------------------------------------|
/-0-0-0-0-1-0-0-0-0-0-0-1-0-0-0-0-0-0-1-0-0-5-0--7-0-5-0-3------|

/---------------------------------------------------------|
/---------------------------------------------------------|
/---------------------------------------------------------|
/------12---11---------/--0-----8---3---5-----/-----------|
/-------8----7---------/--0-----8---3---5-x2--/-----------|
/-------8----7----5----/--0-----8---3---5-----/-----------|

/------------------------------------|
/------------------------------------|
/------------------------------------|
/--0-----8----3----7-----/-----------|
/--0-----8----3----7-x2--/-----------|
/--0-----8----3----7-----/-----------|


/------------------------------------------------------------------------|
/------------------------------------------------------------------------|
/------------------------------------------------------------------------|
/------------------------------------------------------------------------|    x4
/---------5---5---5---5--5-------------------5---5-----5---5-5-----------|
/-0-0-0-0--0---0---0-------0-2-3-5-3-2-0------0----0----0------0-0-0-0---|

Guitarra 2

/------------------------------------------------------------------------|
/------------------------------------------------------------------------|
/------------------------------------------------------------------------|
/----------------------------------------------------------------7-7-7---|    x2
/--5---5---5---5--5-------------------5---5-----5---5-5------------------|
/----0---0---0-------0-2-3-5-3-2-0------0----0----0------0-0-0-0---------|

/------------------------------------|
/------------------------------------|
/------------------------------------|
/--0---------------------------------|
/--0---------------------------------|
/--0--3-2-0-2-3-5-3-2-0--------------|

/------------------------------------|
/------------------------------------|
/------------------------------------|
/------------------------------------|  x5
/------------------------------------|
/--0-0-0-0--3-2-0-2-3-5-3-2-0--------|

/-------------------------------------------------------------------|
/-------------------------------------------------------------------|
/-------------------------------------------------------------------| x2
/-------------------------------------------------------------------|
/----------------------------------------------10-0-0-12-0--10-0-8--|             x2
/-0-0-0-0-13-0-0-0-0-0-0-13-0-0-0-0-0-0-13-0-0----------------------|

/---------------------------------------------------------------------------------------|
/---------------------------------------------------------------------------------------|
/---10-9---14---12-----/----------------------------------------------------------/-----|
/-------------------11-/-15-0-14-0-12-0-17-0-15-0-14--19-0-17-0-15-0-17-0-15-0-14-/-x2--|
/----------12---10-----/----------------------------------------------------------/-----|
/---------------------------------------------------------------------------------------|

/------------------------------------------------------------------------|
/------------------------------------------------------------------------|
/------------------------------------------------------------------------|
/----------------------------------------------------------------7-7-7---|    x2
/--5---5---5---5--5-------------------5---5-----5---5-5------------------|
/----0---0---0-------0-2-3-5-3-2-0------0----0----0------0-0-0-0---------|

/------------------------------------|
/------------------------------------|
/------------------------------------|
/--0---------------------------------|
/--0---------------------------------|
/--0--3-2-0-2-3-5-3-2-0--------------|

/------------------------------------|
/------------------------------------|
/------------------------------------|
/------------------------------------|  x4
/------------------------------------|
/--0-0-0-0--3-2-0-2-3-5-3-2-0--------|

/-------------------------------------------------------------------|
/-------------------------------------------------------------------|
/-------------------------------------------------------------------| x4
/-------------------------------------------------------------------|
/----------------------------------------------10-0-0-12-0--10-0-8--|
/-0-0-0-0-13-0-0-0-0-0-0-13-0-0-0-0-0-0-13-0-0----------------------|

/-------------------------------------------------------------------------------------|
/-------------------------------------------------------------------------------------|
/------14---12-----/----------------------------------------------------------/-------|
/---------------11-/-15-0-14-0-12-0-17-0-15-0-14--19-0-17-0-15-0-17-0-15-0-14-/-x2----|
/------12---10-----/----------------------------------------------------------/-------|
/-------------------------------------------------------------------------------------|

/--------------------------|
/--------------------------|
/--10---17--14--12-14------|
/--------------------------| x2
/--8----15--12--10-12------|
/--------------------------|

/------------------------------------------------------------------------|
/------------------------------------------------------------------------|
/------------------------------------------------------------------------|
/--------------------------------------------------------------7-7-7-7---|    x4
/---------5---5---5---5--5-------------------5---5-----5---5-5-----------|
/-0-0-0-0--0---0---0-------0-2-3-5-3-2-0------0----0----0----------------|
Добавлено: 28.12.2015
Вам также может быть интересно:
Другие материалы по этой песне:
  • Аккорды и текст

Страница создана 28.12.2015
http://primanota.ru/melian/memento-vivere-chords.htm
Привет, Гость.
Предлагаем пройти революционный курс по гитаре.
Подарок от PrimaNota.Ru, забирай!