PrimaNota.ru - самый крупный в мире бесплатный архив песенных текстов, аккордов, табулатур и нот


Melian - El Sindrome Estocolmo - таба, видео

Регистрация Запомнить меня
Войти через:  Facebook Google Twitter Vk Yandex Mail.ru

Melian - El Sindrome Estocolmo - таба, видео

Печатать
Просмотров: 66
11- El Síndrome Estocolmo (Imita al piano)

/-----8--7------5------------8---7----5------|
/-----------------8---------------------8----|
/--------------------------------------------|
/---7--------7------------5------------------|
/-0-----0------------------------------------|
/-----------------------5------5---5---------|

/----------------------------------------------|
/------13--12--10------------13--15--13-12-----|
/----------------12------------------------12--|
/----------------------------------------------|
/----10-------------------12-------------------|
/--10----10--10--------12------12--12----------|

                       x2


/---------5-------------------------------|
/-------------------------------15--------|
/--------------------12------------14-----|  x2
/------5-------------12-------------------|
/----5------------------------------------|
/--5-----------10----------12-------------|

/----13---------13----------------------|
/--13--------15---------8--9------------|
/-10------14----------------------------|
/-------0-------------------------------|
/--------------------5-----6------------|
/------------------5-------6------------|

/-------8---8--------10-----10-------------15------15-------------17--------------|
/-------------------------------------------------------------------------13-12---|
/-----5------5--------------------------------------------------------------------|
/---7--------------5--------5-----------10--------------------12------------------| x4
/-0--------0-----5----------5--------10--------10----------12---------12--15-14---|
/--------------5-----5--5---5-----10-------10------10---12--------12--------------|

/-----8--7------5------------8---7----5------|
/-----------------8---------------------8----|
/--------------------------------------------|
/---7--------7------------5------------------|
/-0-----0------------------------------------|
/-----------------------5------5---5---------|

/----------------------------------------------|
/------13--12--10------------13--15--13-12-----|
/----------------12------------------------12--|
/----------------------------------------------|
/----10-------------------12-------------------|
/----------------------------------------------|
Добавлено: 28.12.2015
Другие материалы по этой песне:
  • Аккорды и текст

Страница создана 28.12.2015
http://primanota.ru/melian/el-sindrome-estocolmo-chords.htm
Привет, Гость.
Предлагаем пройти революционный курс по гитаре.
Подарок от PrimaNota.Ru, забирай!