PrimaNota.ru - самый крупный в мире бесплатный архив песенных текстов, аккордов, табулатур и нот


Melian - Avanzar Avanzar Avanzar - таба, видео

Регистрация Запомнить меня
Войти через:  Facebook Google Twitter Vk Yandex Mail.ru

Melian - Avanzar Avanzar Avanzar - таба, видео

Печатать
Просмотров: 124
Уроки эстрадного вокала в Санкт-Петербурге
Canción : Avanzar.Avanzar.Avanzar (Track #6)
Álbum : Semper Fidelis (2012)

Dropeado en B

6 = B
5 = F#
4 = B
3 = E
2 = G#
1 = C#

Guitarra 1 (Lado izquierdo del auricular)

/--------------------------    /------------------------------------|
/--------------------------    /------------------------------------|
/--------------------------    /------------------------------------|
/-------------------------- X3 /------------------------------------|
/--------------------------    /------------8/7/5/7/8/12/10/8-------|
/--0-0-8-8-8-0-0-5-5/10----    /-0-0-8-8-8--------------------------|

/-----------------------------|
/-----------------------------|
/-----------------------------|
/-----------------------------| X4
/-----------------------------|
/-0--0--0-0-0-0-0--0-0--0---0-|

/-----------------|
/-----------------|
/-----------------|
/--12-15--14--15--| X4
/--8--12--10--12--|
/--8--12--10--12--|

/---------------------------------------------|
/---------------------------------------------|
/---------------------------------------------|
/---------------------------------------------|
/---------------------------------------------|
/--0-0-8-8-8-0-0-5-5/10--0-0-8-8-8---8---7----|

/----------------------|
/----------------------|
/----------------------|
/--15--14--12--11------| X2
/--12--10--8---7-------|
/--12--10--8---7-------|

/-----------------------------|
/-----------------------------|
/---------------------------5-|
/-----8-7-5-7-3-----8-7-5-7---| X2
/-5-5-----------5-5-----------|
/-----------------------------|

/-----------------------------|
/-----------------------------|
/-----------------------------|
/-----------------------------| X4
/-----------------------------|
/-0--0--0-0-0-0-0--0-0--0---0-|

/-----------------|
/-----------------|
/-----------------|
/--12-15--14--15--| X4
/--8--12--10--12--|
/--8--12--10--12--|

/-20-17-------------------|
/-------20-18----18----18-|
/-------------19----19----|
/-------------------------| X16
/-------------------------|
/-------------------------|

/-----------|
/-----------|
/-7-7-7-7---|
/-----------|
/-----------|
/-----------|

/-----------------|
/-----------------|
/-----------------|
/--12-15--14--15--| X4
/--8--12--10--12--|
/--8--12--10--12--|

/-----------------------------|
/-----------------------------|
/-----------------------------|
/-----------------------------| X4
/-----------------------------|
/-0--0--0-0-0-0-0--0-0--0---0-|


Guitarra 2 (Lado derecho del auricular)

/----------------------------------|
/----------------------------------|
/------12-12-12------10-10-9-------|
/----------------------------------| X4 En la cuarta vez hacer hasta el ultimo 10/12
/------10-10-10------8--8--7-------|
/-0-0------------0-0---------------|

/-----------------------------|
/-----------------------------|
/-----------------------------|
/-----------------------------| X4
/-----------------------------|
/-0--0--0-0-0-0-0--0-0--0---0-|

/----------------------------|
/----------------------------|
/-10-9-14-12--12/14----------|
/----------------------------| X4
/-8--7-12-10--10/12----------|
/----------------------------|

/---------------------------------------------|
/---------------------------------------------|
/---------------------------------------------|
/---------------------------------------------|
/-----------------------------------8---7-----|
/--0-0-8-8-8-0-0-5-5/10--0-0-8-8-8------------|

/---------------------------------------------------------------------|
/-6---6---6---6---5---5---5---5---8---8---8---8---10---10---8---8-----|
/---7---7---7---7---7---7---7---7---7---7---7---7----7----7---7---7---| x2
/---------------------------------------------------------------------|
/---------------------------------------------------------------------|
/---------------------------------------------------------------------|

/-------------------------------|
/-------------------------------|
/-------------------------------|
/-------------------------------| x2
/-------------------------------|
/-0-0-8-7-5-7-3--0-0-8-7-5-7-10-|


/-----------------------------|
/-----------------------------|
/-----------------------------|
/-----------------------------| X4
/-----------------------------|
/-0--0--0-0-0-0-0--0-0--0---0-|

/----------------------------|
/----------------------------|
/-10-9-14-12--12/14----------|
/----------------------------| X4
/-8--7-12-10--10/12----------|
/----------------------------|

/--------------------------|
/-6--6----6----------------|
/-7--7----7--4----4---7----|
/-0--0----0--0----0---0----| X2
/--------------------------|
/--------------------------|

/--------------|
/--------------|
/-12-7-7-7-7---|
/--------------|
/--------------|
/--------------|

/----------------------------|
/----------------------------|
/-10-9-14-12--12/14----------|
/----------------------------| X4
/-8--7-12-10--10/12----------|
/----------------------------|

/-----------------------------|
/-----------------------------|
/-----------------------------|
/-----------------------------| X3
/-----------------------------|
/-0--0--0-0-0-0-0--0-0--0---0-|
Добавлено: 26.05.2016
Другие материалы по этой песне:
  • Аккорды и текст

Страница создана 26.05.2016
http://primanota.ru/melian/avanzar-avanzar-avanzar-chords.htm
Привет, Гость.
Предлагаем пройти революционный курс по гитаре.
Подарок от PrimaNota.Ru, забирай!