PrimaNota.ru - самый крупный в мире бесплатный архив песенных текстов, аккордов, табулатур и нот


Melancholy - Spirit - таба, видео

Регистрация Запомнить меня
Войти через:  Facebook Google Twitter Vk Yandex Mail.ru

Melancholy - Spirit - таба, видео

Печатать
Просмотров: 48
Zchech it. Coming out Summer 2015 on the debut. https://melancholy2014.bandcamp.com/

Part 1 (Main rhythm)
e|--------7---------------11--11-|
B|--7-7-10-10-7-----11--14--14---|
G|-8-8------------12--12---------|
D|9-------------13---------------|
A|-------------------------------|
E|-------------------------------|

Bassline:
G|--------------------------------|
D|---------------------13-11------|
A|---6-6-9-6-------13-------13-11-|
E|7-7-7-----7-11-11--11-----------|

-----------------------------------------------------------------------------

Part 2 (Chorus)

e|7~---6~---|
B|7~---9~---|
G|8~---7~---|
D|9~---8~---|
A|9~---6~---|
E|7~---6~---|

Bassline:
G|------------------|
D|------------------|
A|------------------|
E|7----6----7----11-|
Добавлено: 01.01.2016
Другие материалы по этой песне:
  • Аккорды и текст

Страница создана 01.01.2016
http://primanota.ru/melancholy/spirit-chords.htm
Привет, Гость.
Предлагаем пройти революционный курс по гитаре.
Подарок от PrimaNota.Ru, забирай!