PrimaNota.ru - самый крупный в мире бесплатный архив песенных текстов, аккордов, табулатур и нот


Mekons - Prince Of Darkness - таба, видео

Регистрация Запомнить меня
Войти через:  Facebook Google Twitter Vk Yandex Mail.ru

Mekons - Prince Of Darkness - таба, видео

Печатать
Просмотров: 116
Уроки эстрадного вокала в Санкт-Петербурге
Авторы: The Mekons

      C    G                Am
And now he is the prince of darkness
     C         G                     Am
He holds old friends in such high esteem
    C      G            Am               F
He sees a red town and wants it painted black
         C            F          C   
For the Catholic girls  at Halloween


Well he said to me, I've waited seven years
And I am a very patient man
After all those things that you've gone and done
I still need someone to tell

His pleasures were a mystery to us all
You'd never see him out after dawn
In a German seaport town, he takes his coffee in the red light
And now he is the prince of darkness

FILL RIFF - last 6 notes below optional before 1ST, 2ND, 3RD lines
before C chord
  C           G           Am
e-------------------------------------------/
B-------------------------------------------/
G-------------------------------------------/
D-------------------------------------------/
A–3-33--333----------------0-00-0000----0020/
E--------------3-33--333--------------33----/

ALTERNATIVE: C scale fill staring 2 beats earlier than above riff
(this isn't exactly what jon plays live, a couple of notes are
different, but I can't figure them)
   C            G        Am
e---------------------------------------/
B-------------------------------------01/
G-----------------------------------02--/
D--------------------------------023----/
A–3-33--333--------------0-00-003-------/
E---------------3-33--333---------------/
Добавлено: 28.06.2012
Другие материалы по этой песне:
  • Аккорды и текст

Страница создана 28.06.2012
http://primanota.ru/mekons/prince-of-darkness-chords.htm
Привет, Гость.
Предлагаем пройти революционный курс по гитаре.
Подарок от PrimaNota.Ru, забирай!