PrimaNota.ru - самый крупный в мире бесплатный архив песенных текстов, аккордов, табулатур и нот


Mekaal Hasan Band - Rabba - таба, видео

Регистрация Запомнить меня
Войти через:  Facebook Google Twitter Vk Yandex Mail.ru

Mekaal Hasan Band - Rabba - таба, видео

Печатать
Просмотров: 52
This is just the tab for Mekaal's solo. Mekaal Hasan Band's music is so hard to tab, and 
I only understood this acoustic solo by Mekaal for Rabba's solo.

e---8-5-3-1-1-3-1-0--|
B--------------------|
G--------------------|
D--------------------|
A--------------------|
E--------------------|

e---0-0-1-3-5-|
B-------------|
G-------------|
D-------------|
A-------------|
E-------------|

e---5-7-8-8---|
B-------------|
G-------------|
D-------------|
A-------------|
E-------------|

e---12-12-13-12-10-8--|
B---------------------|
G---------------------|
D---------------------|
A---------------------|
E---------------------|

e---10-12-12-10-8-10--|
B---------------------|
D---------------------|
G---------------------|
A---------------------|
E---------------------|

e---7-8-10-8-7-5---|
B------------------|
D------------------|
G------------------|
A------------------|
E------------------|

Hope you get it.
My website: www.superinsha.webs.com
Добавлено: 24.06.2016
Другие материалы по этой песне:
  • Аккорды и текст

Страница создана 24.06.2016
http://primanota.ru/mekaal-hasan-band/rabba-chords.htm
Привет, Гость.
Предлагаем пройти революционный курс по гитаре.
Подарок от PrimaNota.Ru, забирай!