PrimaNota.ru - самый крупный в мире бесплатный архив песенных текстов, аккордов, табулатур и нот


Mejibray - Worms - бас-таба, видео

Регистрация Запомнить меня
Войти через:  Facebook Google Twitter Vk Yandex Mail.ru

Mejibray - Worms - бас-таба, видео

Печатать
Просмотров: 65
..........................
.        [WORMS]         .
..........................

00:14 
             REPEAT 8X
G|--------------------|
D|--------------------|
A|--------------------|
E|-2323-2323-2323-5-7-|

00:41  
                      REPEAT 2X
G|------------------------------|
D|------------------------------|
A|------------------------------|
E|00-030-00-070-00-00-050-080---|

00:54
             REPEAT 4X
G|--------------------|
D|--------------------|
A|--------------------|
E|-2323-2323-2323-5-7-|

01:08
                       REPEAT 4X
G|------------------------------|
D|------------------------------|
A|------------------------------|
E|00-030-00-070-00-00-050-080---|

01:34

G|--------------------|
D|--------------------|
A|-1~~3~4~------------|
E|--------------------|
 
  SSPPSSPPSSPPSSPP
G|--------------------|
D|--33--33--33--33----|
A|--------------------|
E|33--33--33--33------|


G|--------------------|
D|--------------------|
A|-1~~3~4~------------|
E|--------------------|
 
  SSPPSSPPSSPPSSPP
G|--------------------|
D|--33--33--33--33----|
A|--------------------|
E|33--33--33--33------|

01:50
            REPEAT 8X
G|--------------------|
D|--------------------|
A|--------------------|
E|-2323-2323-2323-5-7-|

02:17
                       REPEAT 2X
G|------------------------------|
D|------------------------------|
A|------------------------------|
E|00-030-00-070-00-00-050-080---|

02:31

G|--------------------|
D|--------------------|
A|-1~~3~4~------------|
E|--------------------|
 
  SSPPSSPPSSPPSSPP
G|--------------------|
D|--33--33--33--33----|
A|--------------------|
E|33--33--33--33------|


G|--------------------|
D|--------------------|
A|-1~~3~4~------------|
E|--------------------|
 
  SSPPSSPPSSPPSSPP
G|--------------------|
D|--33--33--33--33----|
A|--------------------|
E|33--33--33--33------|

02:47

             REPEAT 8X
G|--------------------|
D|--------------------|
A|--------------------|
E|-2323-2323-2323-5-7-|
Добавлено: 27.11.2015
Вам также может быть интересно:
Другие материалы по этой песне:
  • Аккорды и текст

Страница создана 27.11.2015
http://primanota.ru/mejibray/worms-chords.htm
Привет, Гость.
Предлагаем пройти революционный курс по гитаре.
Подарок от PrimaNota.Ru, забирай!