PrimaNota.ru - самый крупный в мире бесплатный архив песенных текстов, аккордов, табулатур и нот


Mejibray - A Priori - бас-таба, видео

Регистрация Запомнить меня
Войти через:  Facebook Google Twitter Vk Yandex Mail.ru

Mejibray - A Priori - бас-таба, видео

Печатать
Просмотров: 158
Уроки эстрадного вокала в Санкт-Петербурге
00:11 
  SSS             SSSP SSSPP  REPEAT 4X
E|-----|      E|------------------------|
A|-----|      A|-----1----1-3-----------|
D|-----|      D|------------------------|
G|111--|      G|--111--111--------------|

E|---------------------------------------------|
A|---------------------------------------------|
D|---------------------------------------------|
G|0020807053-0020305032-0020308032--00300-00---|

00:31
E|--------------------------------------|
A|--------------------------------------|
D|--------------------------------------|
G|10000000-1000-3-5-10000000-1000-5-7---|

E|---------------------------------------|
A|---------------------------------------|
D|---------------------------------------|
G|10000000-1000-3-5-10000000-1-0-0-0-----|

00:50
E|----------------------------------------------|
A|----------------------------------------------|
D|11111111-33333333-0000-4444-55-12-10-12-3333--|
G|----------------------------------------------|

E|---------------------------------------------|
A|---------------------------------------------|
D|-11111111-3333-4444---------------------657--|
G|---------------------001001001001001001------|


01:09
    SSSP SSSPP  REPEAT 4X
E|------------------------|
A|-----1----1-3-----------|
D|------------------------|
G|--111--111--------------|

01:19
E|---------------------------------5h7-5h7-5h7-|
A|---------------------------------------------|
D|----------------------3535353535-------------|
G|0020807053-0020305032------------------------|

01:28
E|--------------------------------------|
A|--------------------------------------|
D|--------------------------------------|
G|10000000-1000-3-5-10000000-1000-5-7---|

E|---------------------------------------|
A|---------------------------------------|
D|---------------------------------------|
G|10000000-1000-3-5-10000000-1-0-0-0-----|

01:46
E|----------------------------------------------|
A|----------------------------------------------|
D|11111111-33333333-0000-4444-55-12-10-12-3333--|
G|----------------------------------------------|

E|---------------------------------------------|
A|-----------------------------------------7---|
D|-11111111-3333-4444---------------------5-575|
G|---------------------001001001001001001------|

02:14
E|----------------------------------------|
A|----------------------------------------|
D|56-8-565-8-565-565-8-565-565-8-565-56---|
G|--------------------------------------6-|

02:24
E|----------------------------------------------|
A|----------------------------------------------|
D|11111111-33333333-0000-4444-5555-3333---------|
G|----------------------------------------------|

E|---------------------------------------------|
A|-----------------------------------------7---|
D|-11111111-3333-4444---------------------5-575|
G|---------------------001001001001001001------|

02:52
E|----------------------------------------------|
A|----------------------------------------------|
D|--------1111-3333-----------11111111-000000---|
G|00000000-----------00000000-------------------|

03:04
E|----------------------------------------------|
A|----------------------------------------------|
D|11111111-33333333-0000-4444-55-12-10-12-3333--|
G|----------------------------------------------|

03:18
E|--------------------------------|
A|--------------------------------|
D|--------------------------------|
G|-001001001001001001--0-0-0------|

03:24
                                      REPEAT 2X
E|----------------------------------------------|
A|----------------------------------------------|
D|11111111-33333333-0000-4444-55-12-10-12-3333--|
G|----------------------------------------------|

E|---------------------------------------------|
A|-----------------------------------------7---|
D|-11111111-3333-4444---------------------5-575|
G|---------------------001001001001001001------|

04:00

    SSSP SSSPP  REPEAT 4X
E|------------------------|
A|-----1----1-3-----------|
D|------------------------|
G|--111--111--------------|
Добавлено: 27.11.2015
Другие материалы по этой песне:
  • Аккорды и текст

Страница создана 27.11.2015
http://primanota.ru/mejibray/priori-chords.htm
Привет, Гость.
Предлагаем пройти революционный курс по гитаре.
Подарок от PrimaNota.Ru, забирай!