PrimaNota.ru - самый крупный в мире бесплатный архив песенных текстов, аккордов, табулатур и нот


Mejibray - 盈虧 - таба, видео

Регистрация Запомнить меня
Войти через:  Facebook Google Twitter Vk Yandex Mail.ru

Mejibray - 盈虧 - таба, видео

Печатать
Просмотров: 369
Уроки эстрадного вокала в Санкт-Петербурге
Авторы музыки: MiA
Авторы текста: 綴
-------------------------------------------------------------------------------
                             盈虧 - MEJIBRAY
-------------------------------------------------------------------------------
Tabbed by:Rodriguez
E-mail:boutcheetah@tlen.pl

Tuning:drop C 
Check my profil for information about new tabs!
                                   Intro
   .  .  .      .  .  .  .  .  .  .     .  .  .     .  .  .      .  .  .  .
D|----------------------------------------------------------------------------|
A|----------------------------------------------------------------------------|
F|----------------------------------------------------------------------------|
C|----------------------------------------------------------------------------|
G|----------------------------------------------------------------------------|
C|-7--7--7--7---7--7--7--7--3--3--3--3---3--3--3--3--0--0--0--0---0--0--0--0--|
   .  .  .  .
D|----------------------------------------------------------------------------|
A|----------------------------------------------------------------------------|
F|----------------------------------------------------------------------------|
C|------------5----8----------------------------------------------------------|
G|------------5----8----------------------------------------------------------|
C|-7--7--7--7-5----8----------------------------------------------------------|
                                 
   .  .  .      .  .  .  .  .  .  .     .  .  .     .  .  .      .  .  .  .
D|----------------------------------------------------------------------------|
A|----------------------------------------------------------------------------|
F|----------------------------------------------------------------------------|
C|----------------------------------------------------------------------------|
G|----------------------------------------------------------------------------|
C|-7--7--7--7---7--7--7--7--3--3--3--3---3--3--3--3--0--0--0--0---0--0--0--0--|
                                  Verse
   .  .  .      .  .  .  .  .  .  .      .  .  .     .  .  .      .  .  .  .
D||---------------------------------------------------------------------------|
A||---------------------------------------------------------------------------|
F||---------------------------------------------------------------------------|
C||---------------------------------------------------------------------------|
G||---------------------------------------------------------------------------|
C||-7--7--7--7---7--7--7--7--7--7--7--7---7--7--7--7--3--3--3--3---3--3--3--3-|
   .  .  .      .  .  .  .
D|---------------------------------------------------------------------------||
A|---------------------------------------------------------------------------||
F|---------------------------------------------------------------------------||
C|---------------------------------------------------------------------------||
G|---------------------------------------------------------------------------||
C|-0--0--0--0---0--0--0--0---------------------------------------------------||x2
                                  Chours(?)
    .  .  .      .  .  .  . 
D||---------------------------------------------------------------------------|
A||---------------------------------------------------------------------------|
F||---------------------------------------------------------------------------|
C||--------------------------3--------------0--------------7----------------5-|
G||--------------------------3--------------0--------------7----------------5-|
C||-7--7--7--7---7--7--7--7--3--------------0--------------7----------------5-|

                                .
D|----------------------------------------------------------------------------|
A|----------------------------------------------------------------------------|
F|----------------------------------------------------------------------------|
C|-3-------------0-------------(0)--------------------------------------------|
G|-3-------------0-------------(0)--------------------------------------------|
C|-3-------------0-------------(0)--------------------------------------------|
                                 Verse 2
   .  .  .      .  .  .  .  .  .  .     .  .  .     .  .  .      .  .  .  .
D|----------------------------------------------------------------------------|
A|----------------------------------------------------------------------------|
F|----------------------------------------------------------------------------|
C|----------------------------------------------------------------------------|
G|----------------------------------------------------------------------------|
C|-7--7--7--7---7--7--7--7--3--3--3--3---3--3--3--3--0--0--0--0---0--0--0--0--|
                                 
   .  .  .      .  .  .  .  .  .  .      .  .  .     .  .  .      .  .  .  .
D||---------------------------------------------------------------------------|
A||---------------------------------------------------------------------------|
F||---------------------------------------------------------------------------|
C||---------------------------------------------------------------------------|
G||---------------------------------------------------------------------------|
C||-7--7--7--7---7--7--7--7--7--7--7--7---7--7--7--7--3--3--3--3---3--3--3--3-|
   .  .  .      .  .  .  .
D|---------------------------------------------------------------------------||
A|---------------------------------------------------------------------------||
F|---------------------------------------------------------------------------||
C|---------------------------------------------------------------------------||
G|---------------------------------------------------------------------------||
C|-0--0--0--0---0--0--0--0---------------------------------------------------||x2
   .  .  .      .  .  .  .
D|----------------------------------------------------------------------------|
A|----------------------------------------------------------------------------|
F|----------------------------------------------------------------------------|
C|----------------------------------------------------------------------------|
G|----------------------------------------------------------------------------|
C|-7--7--7--7---7--7--7--7----------------------------------------------------|
                                 Bridge
                                 
   .  .  .      .  .  .  .  .  .  .     .  .  .     .  .  .      .  .  .  .
D|----------------------------------------------------------------------------|
A|----------------------------------------------------------------------------|
F|----------------------------------------------------------------------------|
C|----------------------------------------------------------------------------|
G|----------------------------------------------------------------------------|
C|-7--7--7--7---7--7--7--7--3--3--3--3---3--3--3--3--0--0--0--0---0--0--0--0--|
                                  Verse
   .  .  .      .  .  .  .  .  .  .      .  .  .     .  .  .      .  .  .  .
D||---------------------------------------------------------------------------|
A||---------------------------------------------------------------------------|
F||---------------------------------------------------------------------------|
C||---------------------------------------------------------------------------|
G||---------------------------------------------------------------------------|
C||-7--7--7--7---7--7--7--7--7--7--7--7---7--7--7--7--3--3--3--3---3--3--3--3-|
   .  .  .      .  .  .  .
D|---------------------------------------------------------------------------||
A|---------------------------------------------------------------------------||
F|---------------------------------------------------------------------------||
C|---------------------------------------------------------------------------||
G|---------------------------------------------------------------------------||
C|-0--0--0--0---0--0--0--0---------------------------------------------------||x2
                                  Chours(?)
    .  .  .      .  .  .  . 
D||---------------------------------------------------------------------------|
A||---------------------------------------------------------------------------|
F||---------------------------------------------------------------------------|
C||--------------------------3--------------0--------------7----------------5-|
G||--------------------------3--------------0--------------7----------------5-|
C||-7--7--7--7---7--7--7--7--3--------------0--------------7----------------5-|

                                .
D|----------------------------------------------------------------------------|
A|----------------------------------------------------------------------------|
F|----------------------------------------------------------------------------|
C|-3-------------0-------------(0)--------------------------------------------|
G|-3-------------0-------------(0)--------------------------------------------|
C|-3-------------0-------------(0)--------------------------------------------|
                                    Verse 3
   .  .  .      .  .  .  .  .  .  .     .  .  .     .  .  .      .  .  .  .
D|----------------------------------------------------------------------------|
A|----------------------------------------------------------------------------|
F|----------------------------------------------------------------------------|
C|----------------------------------------------------------------------------|
G|----------------------------------------------------------------------------|
C|-7--7--7--7---7--7--7--7--3--3--3--3---3--3--3--3--0--0--0--0---0--0--0--0--|
                                 
   .  .  .      .  .  .  .  .  .  .      .  .  .     .  .  .      .  .  .  .
D|----------------------------------------------------------------------------|
A|----------------------------------------------------------------------------|
F|----------------------------------------------------------------------------|
C|----------------------------------------------------------------------------|
G|----------------------------------------------------------------------------|
C|-7--7--7--7---7--7--7--7--7--7--7--7---7--7--7--7--3--3--3--3---3--3--3--3--|
   .  .  .      .  .  .  .   .  .  .      .  .  .  .
D|----------------------------------------------------------------------------|
A|----------------------------------------------------------------------------|
F|----------------------------------------------------------------------------|
C|----------------------------------------------------------------------------|
G|----------------------------------------------------------------------------|
C|-0--0--0--0---0--0--0--0---7--7--7--7---7--7--7--7--------------------------|
     
                                    Solo(Yay)
                      Number of strokes can disagree
D|----------------------------------------------------------------------------|
A|-/10-10-10-10-10-10-10-10-10-10-10-10-10-10-10-10---------------------------|
F|----------------------------------------------------------------------------|
C|----------------------------------------------------------------------------|
G|----------------------------------------------------------------------------|
C|----------------------------------------------------------------------------|

D|-------------------------------------------------13-13-13-13-13-13-13-13----|
A|-12-12-12-12-12-12-12-12-13-13-13-13-13-13-13-13----------------------------|
F|----------------------------------------------------------------------------|
C|----------------------------------------------------------------------------|
G|----------------------------------------------------------------------------|
C|----------------------------------------------------------------------------|
                             It should be good
D|-------20--19--20--19--------------17~-17-19-20~/22-22b24br22b24~~\---------|
A|-15~\/----------------20--17--20~~------------------------------------------|
F|----------------------------------------------------------------------------|
C|----------------------------------------------------------------------------|
G|----------------------------------------------------------------------------|
C|----------------------------------------------------------------------------|
                                  Verse 4
   .  .  .      .  .  .  .  .  .  .     .  .  .     .  .  .      .  .  .  .
D|----------------------------------------------------------------------------|
A|----------------------------------------------------------------------------|
F|----------------------------------------------------------------------------|
C|----------------------------------------------------------------------------|
G|----------------------------------------------------------------------------|
C|-7--7--7--7---7--7--7--7--3--3--3--3---3--3--3--3--0--0--0--0---0--0--0--0--|
   .  .  .  .
D|----------------------------------------------------------------------------|
A|----------------------------------------------------------------------------|
F|----------------------------------------------------------------------------|
C|----------------------------------------------------------------------------|
G|----------------------------------------------------------------------------|
C|--7--7--7--7----------------------------------------------------------------|

   .  .  .      .  .  .  .  .  .  .     .  .  .     .  .  .      .  .  .  .
D|----------------------------------------------------------------------------|
A|----------------------------------------------------------------------------|
F|----------------------------------------------------------------------------|
C|----------------------------------------------------------------------------|
G|----------------------------------------------------------------------------|
C|-7--7--7--7---7--7--7--7--3--3--3--3---3--3--3--3--0--0--0--0---0--0--0--0--|

   .  .  .      .  .  .  .  .  .  .      .  .  .     .  .  .      .  .  .  .
D|----------------------------------------------------------------------------|
A|----------------------------------------------------------------------------|
F|----------------------------------------------------------------------------|
C|----------------------------------------------------------------------------|
G|----------------------------------------------------------------------------|
C|-7--7--7--7---7--7--7--7--7--7--7--7---7--7--7--7--7--7--7--7---7--7--7--7--|
   .  .  .     .  .  .     .  .  .      .  .  .  .
D|----------------------------------------------------------------------------|
A|----------------------------------------------------------------------------|
F|----------------------------------------------------------------------------|
C|----------------------------------------------------------------------------|
G|----------------------------------------------------------------------------|
C|-3--3--3--3---3--3--3--3--0--0--0--0---0--0--0--0---------------------------|

   .  .  .      .  .  .  .  .  .  .      .  .  .     .  .  .      .  .  .  .
D|----------------------------------------------------------------------------|
A|----------------------------------------------------------------------------|
F|----------------------------------------------------------------------------|
C|----------------------------------------------------------------------------|
G|----------------------------------------------------------------------------|
C|-7--7--7--7---7--7--7--7--7--7--7--7---7--7--7--7--3--3--3--3---3--3--3--3--|
   .  .  .      .  .  .  .  .  .  .      .  .  .  .
D|----------------------------------------------------------------------------|
A|----------------------------------------------------------------------------|
F|----------------------------------------------------------------------------|
C|----------------------------------------------------------------------------|
G|----------------------------------------------------------------------------|
C|-7--7--7--7---7--7--7--7--5--5--5--5---5--5--5--5---------------------------|
   .  .  .      .  .  .  .  .  .  .      .  .  .  .
D|----------------------------------------------------------------------------|
A|----------------------------------------------------------------------------|
F|----------------------------------------------------------------------------|
C|---------------------------------------------------7------------------------|
G|---------------------------------------------------7------------------------|
C|-7--7--7--7---7--7--7--7--3--3--3--3---3--3--3--3--7-/\---------------------|



************************************
| ()  duration
| /   slide up
| \   slide down
| ~   vibrato
| b   Bend
| br  Bend release

************************************
Добавлено: 27.11.2015
Другие материалы по этой песне:
  • Аккорды и текст

Страница создана 27.11.2015
http://primanota.ru/mejibray/-chords.htm
Привет, Гость.
Предлагаем пройти революционный курс по гитаре.
Подарок от PrimaNota.Ru, забирай!