PrimaNota.ru - самый крупный в мире бесплатный архив песенных текстов, аккордов, табулатур и нот


Megson - Fell To The Breeze - таба, видео

Регистрация Запомнить меня
Войти через:  Facebook Google Twitter Vk Yandex Mail.ru

Megson - Fell To The Breeze - таба, видео

Печатать
Просмотров: 144
Уроки эстрадного вокала в Санкт-Петербурге
--------------------------------------------------------------------------
                             Fell To The Breeze - Megson
--------------------------------------------------------------------------

Tabbed by: thetcutkid
E-mail: thetcutkid@yahoo.co.uk

Tuning: Standard, capo at 7th fret

N.B. It might just be my simple brain but I've never quite understood the concept of 
notating fret positions
relative to the capo, i.e. with the capo at the 7th fret and you holding down the B 
string at the 9th fret, many
people would notate that as 2 on the B string of the tab, I don't, I notate it as 9, 
so all fret positions in the
tab below are exact.

This fantastic song can be found on Megson's equally fantastic 2007 album 'Smoke of 
Home' and it's important to
note that this is not a note for note transcription of the guitar part. Stu Hanna is a 
multi-instrumentalist and
there is at least one guitar and one mandola on the original recorded track. What I've 
tried to do is create a
version that can be played on a single guitar, that incorporates both guitar and mandola 
parts, in order that I
could perform it live on one guitar with a singer.

I've found it quite hard to notate the strumming pattern exactly, as soon as you slow 
things down to work it out
you lose the rhythm and whether that was an upstroke or downstroke you just played ! 
There are also lots of muted
notes which gives the piece great rhythm and drives it on so I've spent days notating 
the strumming pattern as best
I can - this will definitely give you a good starting point.

Even if I do say so myself, it works really well, particularly if you have a sister who 
can play tin whistle and
a friend with a great voice :)

Anyway, hope this is of use to someone.


^                                       |
|       down stroke strum               |       up stroke strum
|       (low to high)                   |       (high to low)
|                                       v

The song starts with a rhythm played on muted strings.

                                                x4
e|---x----------|---|---^---|--------------|
B|---x----^-----|---|---|---|--------------|
G|---x----|-----|---|---|---|--------------|
D|---x----|-----v-- v---|---v--------------|
A|---x----|--------------------------------|
E|---x-------------------------------------|


Intro / Verse 1

e|----10--^---|--x-^---10--|--^--|---x--^---10--|--^--|---x--^---^-|----|
B|----10--|---|--x-|---10--|--|--|---x--|---10--|--|--|---x--|---|-|----|
G|-----0--|---v--x-|----0--v--|--v---x--|----0--v--|--v---x--|---|-v----|
D|----------------------------------------------------------------------|
A|----------------------------------------------------------------------|
E|----------------------------------------------------------------------|


e|----10--^-------|--x-^---10--|--^--|---x--^---10--|--^--|---x--^---^-|---|
B|-----0--|-h-(8)-|--x-|----8--|--|--|---x--|----8--|--|--|---x--|---|-|---|
G|-----0--|-------v--x-|----0--v--|--v---x--|----0--v--|--v---x--|---|-v---|
D|-------------------------------------------------------------------------|
A|-------------------------------------------------------------------------|
E|-------------------------------------------------------------------------|


e|----10--^---|--x-^---10--|--^--|---x--^---10--|--^--|---x--^---^-|--------|
B|----10--|---|--x-|---10--|--|--|---x--|---10--|--|--|---x--|---|-|--------|
G|-----0--|---v--x-|----0--v--|--v---x--|----0--v--|--v---x--|---|-v--------|
D|------------------------------------------------------------------------- |
A|--------------------------------------------------------------------------|
E|--------------------------------------------------------------------------|


e|----10--^-------|--x-^---10--|--^--|---x--^---10--|--^--|---x--^---^-|----|
B|-----0--|-h-(8)-|--x-|----8--|--|--|---x--|----8--|--|--|---x--|---|-|----|
G|-----0--|-------v--x-|----0--v--|--v---x--|----0--v--|--v---x--|---|-v----|
D|--------------------------------------------------------------------------|
A|--------------------------------------------------------------------------|
E|--------------------------------------------------------------------------|


e|------------------------------------------------------------------------------------|
B|------------------------------------------------------------------------------------|
G|---0---0--x--0-------0-----0-------0-------0---0--x--0-------0-----0-------0--------|
D|--12--11-----9-p-(0)-0--0--9-p-(0)-0------12--11-----9-p-(0)-0--0--9-p-(0)-0--------|
A|---------------------------------------9----------------------------------------9---|
E|------------------------------------------------------------------------------------|


e|----10--^---|--x-^---10--|--^--|---x--^---10--|--^--|---x--^---^-|--------|
B|----10--|---|--x-|---10--|--|--|---x--|---10--|--|--|---x--|---|-|--------|
G|----0---|---v--x-|----0--v--|--v---x--|----0--v--|--v---x--|---|-v--------|
D|------------------------------------------------------------------------- |
A|--------------------------------------------------------------------------|
E|--------------------------------------------------------------------------|


e|----10--^-------|--x-^---10--|--^--|---x--^---10--|--^--|---x--^---^-|---|
B|-----0--|-h-(8)-|--x-|----8--|--|--|---x--|----8--|--|--|---x--|---|-|---|
G|-----0--|-------v--x-|----0--v--|--v---x--|----0--v--|--v---x--|---|-v---|
D|-------------------------------------------------------------------------|
A|-------------------------------------------------------------------------|
E|-------------------------------------------------------------------------|


e|------------------------------------------------------------------------------------|
B|------------------------------------------------------------------------------------|
G|---0---0--x--0-------0-----0-------0-------0---0--x--0-------0-----0-------0--------|
D|--12--11-----9-p-(0)-0--0--9-p-(0)-0------12--11-----9-p-(0)-0--0--9-p-(0)-0--------|
A|---------------------------------------9---------------------------------------9----|
E|------------------------------------------------------------------------------------|

Bridge

(If I turn the world over...)

e|---0--^---|---x--^---0---|---^---|---x--^---0---|----/----0---^---|----------------|
B|--12--|---|---x--|--12---|---|---|---x--|--12---|----/---15---|---|----------------|
G|---0--|---|---x--|---0---|---|---|---x--|---0---|----/----0---|---|----------------|
D|---9--|---v-- x--|---9---v---|---v-- x--|---9---v----/---12---|---|----------------|
A|--10--|-------------10-------|-------------10--------/---14---|---v----------------|
E|---x-----------------x----------------------x-------------x------------------------|


e|---0--^---|---x--^---0---|---^---|---x--^----0---|----/----0---^---|----------------|
B|--14--|---|---x--|--14---|---|---|---x--|---14---|----/---15---|---|--------------- |
G|---0--|---|---x--|---0---|---|---|---x--|----0---|----/----0---|---|----------------|
D|--11--|---v-- x--|--11---v---|---v-- x--|---11---v----/---12---|---|--------------- |
A|--12--|-------------12-------|--------------12--------/---14---|---v----------------|
E|---x-----------------x-----------------------x-------------x------------------------|


e|---0---^---|---x--^----0---|---^---|---x--^----0---|---^----0---|---0---^--------------|
B|--12---|---|---x--|---12---|---|---|---x--|---12---|---|---10---|---0---|--------------|
G|---0---|---|---x--|----0---|---|---|---x--|----0---|---|----0---|---0---|--------------|
D|---9---|---v-- x--|----9---v---|---v---x--|----9---v---|----9---v---9---|--------------|
A|--10---|--------------10-------|--------------10-------|---10------10---|--------------|
E|---x-------------------x-----------------------x------------x-------x------------------|


e|---9---^---|---x--^----9---|---^--h-(10)--|---|---^---9---|---x--^---9---|----------|
B|--10---|---|---x--|---10---|---|----------|---|---|--10---|---x--|--10---|----------|
G|---9---|---|---x--|----9---|---|----------|---|---|---9---|---x--|---9---|----------|
D|---0---|---v---x--|----0---v---|----------v---v---|---0---v---x--|---0---v----------|
A|---x-------------------x------------------------------x-----------------------------|
E|---x-------------------x------------------------------x-----------------------------|


e|---0---^---|---x--^----0---|---^---|---x--^---0---|---^---|---^---|-------------------|
B|--12---|---|---x--|---12---|---|---|---x--|--12---|---|---|---|---|-------------------|
G|---0---|---|---x--|----0---|---|---|---x--|---0---|---|---|---|---|-------------------|
D|---9---|---v-- x--|----9---v---|---v---x--|---9---v---|---v---|---v-------------------|
A|--10---|--------------10-------|-------------10-------|-------------------------------|
E|---x-------------------x----------------------x---------------------------------------|


e|---0--^---|---^---|----0---^--|---^---|----0---^---|---^---|--------------------------|
B|--15--|---|---|---|---14---|--|---|---|---12---|---|---|---|--------0--8--------------|
G|---0--|---|---|---|----0---|--|---|---|----0---|---|---|---|---0--9-------------------|
D|--11--|---|---|---|---11---|--|---|---|---11---|---|---|---|--------------------------|
A|--12--|---v---|---v---12---|--v---|---v---12---|---v---|---v--------------------------|
E|---x----------------------------------------------------------------------------------|


A quick note about going from Bridge to Chorus :-

Ideally you'd play the last four notes of the bar above and then do a down stroke 
strum across all six strings
of the first chord of the chorus (fig. a), however, due to the pace of the song, I have 
to say that's quite hard
to achieve. A way round that is to just play the top three strings of the chord (fig. b) 
whilst you move your
first and second fingers over to fret the 4th and 5th strings.

                fig. a                              fig. b
e|----------------10---^------------------------------10---^------------------------|
B|---------0--8---10---|-----------------------0--8---10---|------------------------|
G|---0--9----------0---|------------------0--9---------0---|------------------------|
D|-----------------9---|-------------------------------9----------------------------|
A|-----------------9---|-------------------------------9----------------------------|
E|-----------------0---|-------------------------------0----------------------------|

Chorus

e|---10---^---|---x--^---10---|---^---|---x--^--10---|---^---|---^---|---------------|
B|---10---|---|---x--|---10---|---|---|---x--|--10---|---|---|---|---|---------------|
G|----0---|---v---x--|----0---|---|---|---x--|---0---|---|---|---|---|---------------|
D|----9-----------x--|----9---v---|---v---x--|---9---v---|---v---|---v---------------|
A|----9-------------------9-------|--------------9-------|---------------------------|
E|----0-------------------0-------|--------------0-------|---------------------------|


e|---10---^---|---x--^---10---|---^---|---x--^---10---|---^---|---^---|---------------|
B|---10---|---|---x--|---10---|---|---|---x--|---10---|---|---|---|---|---------------|
G|----0---|---v---x--|----0---|---|---|---x--|----0---|---|---|---|---|---------------|
D|----9---|-------x--|----9---v---|---v---x--|----9---v---|---v---|---v---------------|
A|---10---|--------------10-------|--------------10-------|---------------------------|
E|----x-------------------x-----------------------x-----------------------------------|


e|---10---^---|---x--^---10---|---^---|---x--^--10---|---^---|---^---|---------------|
B|---10---|---|---x--|---10---|---|---|---x--|--10---|---|---|---|----|--------------|
G|----0---|---v---x--|----0---|---|---|---x--|---0---|---|---|---|----|--------------|
D|----0---|-------x--|----0---v---|---v---x--|---0---v---|---v---|----v--------------|
A|----9---|---------------9-------|--------------9-------|---------------------------|
E|---10---|--------------10-------|-------------10-------|---------------------------|


e|---9---^---|---x--^----9---|---^--h-(10)--|---^---|---^----9---|---^---|-------------|
B|--10---|---|---x--|---10---|---|----------|---|---|---|---10---|---|---|-------------|
G|---9---|---|---x--|----9---|---|----------|---|---|---|----9---|---|---|-------------|
D|---0---|---v---x--|----0---v---|----------v---|---v---|----0---v---|---v-------------|
A|---x------------------ x-----------------------------------x-------------------------|
E|---x------------------ x-----------------------------------x-------------------------|

Play the Chorus twice, then play :-

e|---10---^---|---x--^---10---|---^---|---x--^--10---|---^---|---^---|---------------|
B|---10---|---|---x--|---10---|---|---|---x--|--10---|---|---|---|---|---------------|
G|----0---|---v---x--|----0---|---|---|---x--|---0---|---|---|---|---|---------------|
D|----9---|-------x--|----9---v---|---v---x--|---9---v---|---v---|---v---------------|
A|----9---|---------------9-------|--------------9-------|---------------------------|
E|----0---|---------------0-------|--------------0-------|---------------------------|

e|---10---^--------|---|---10---^---^--|---^---------^---|---|---10---^-------------|
B|---10---|--------|---|---10---|---|--|---|---------|---|---|---10---|-------------|
G|----0---|--------|---|----0---|---|--v---|---------|---|---|----0---|-------------|
D|----0---|--h-(9)--v--v----0---|---|------|--h-(9)--|---v---v----0---|-------------|
A|---10---|--------------- 10---|----------|-------------------- 10---|-------------|
E|----x---------------------x-------------------------------------x-----------------|

A quick note about the instrumental breaks :-

On the original recording these are played on the mandola which obviously has double 
string courses and to give
that feel on the guitar, I play an open string alongside the string that is playing the 
melody on the guitar,
hence all the zeros on the G and B strings but it's not an exact science so don't 
feel you absolutely must catch
every open note I've notated or that they must ring out clearly, just catching every 
other one or even if
slightly muted seems to add something and makes it sound a little less 'guitary'.

Instrumental break 1

(the second section of this break is quite fast so I've added the picking direction I 
use above the tab ^=down, v=up)

                                         ^  v   ^  v  v  ^   v  ^  v  ^   v  ^   ^
e|------------------------------------------------------------------------------10---|
B|---------------------------------------0--0---0--0--0--0---0--0--0--0---0--0--10-- |
G|---0---0--x--0-------0-----0-------0---0--9--11--9--0--9--11--9--0--9--11--0---0---|
D|--12--11-----9-p-(0)-0--0--9-p-(0)-0-----------------------------------------------|
A|-----------------------------------------------------------------------------------|
E|-----------------------------------------------------------------------------------|

Verse 2

e|----10--^---|--x-^---10--|--^--|---x--^---10--|--^--|---x--^---^-|--------|
B|----10--|---|--x-|---10--|--|--|---x--|---10--|--|--|---x--|---|-|--------|
G|----0---|---v--x-|----0--v--|--v---x--|----0--v--|--v---x--|---|-v--------|
D|------------------------------------------------------------------------- |
A|--------------------------------------------------------------------------|
E|--------------------------------------------------------------------------|


e|----10--^-------|--x-^---10--|--^--|---x--^---10--|--^--|---x--^---^-|---|
B|-----0--|-h-(8)-|--x-|----8--|--|--|---x--|----8--|--|--|---x--|---|-|---|
G|-----0--|-------v--x-|----0--v--|--v---x--|----0--v--|--v---x--|---|-v---|
D|-------------------------------------------------------------------------|
A|-------------------------------------------------------------------------|
E|-------------------------------------------------------------------------|


e|------------------------------------------------------------------------------------|
B|------------------------------------------------------------------------------------|
G|---0---0--x--0-------0-----0-------0-------0---0--x--0-------0-----0-------0--------|
D|--12--11-----9-p-(0)-0--0--9-p-(0)-0------12--11-----9-p-(0)-0--0--9-p-(0)-0--------|
A|---------------------------------------9---------------------------------------9----|
E|------------------------------------------------------------------------------------|

e|----10--^---|--x-^---10--|--^--|---x--^---10--|--^--|---x--^---^-|--------|
B|----10--|---|--x-|---10--|--|--|---x--|---10--|--|--|---x--|---|-|--------|
G|----0---|---v--x-|----0--v--|--v---x--|----0--v--|--v---x--|---|-v--------|
D|------------------------------------------------------------------------- |
A|--------------------------------------------------------------------------|
E|--------------------------------------------------------------------------|


e|----10--^-------|--x-^---10--|--^--|---x--^---10--|--^--|---x--^---^-|---|
B|-----0--|-h-(8)-|--x-|----8--|--|--|---x--|----8--|--|--|---x--|---|-|---|
G|-----0--|-------v--x-|----0--v--|--v---x--|----0--v--|--v---x--|---|-v---|
D|-------------------------------------------------------------------------|
A|-------------------------------------------------------------------------|
E|-------------------------------------------------------------------------|

                                         ^  v   ^  v  v  ^         v  v  ^
e|---------------------------------------------------------------------------x-^--|--|
B|---------------------------------------0--0---0--0--0--0---------0--0--0---x-|--|--|
G|---0---0--x--0-------0-----0-------0---0--9--11--9--0--9-/-(11)--9--0--0---x-|--|--|
D|--12--11-----9-p-(0)-0--0--9-p-(0)-0---------------------------------------x-|--v--|
A|---------------------------------------------------------------------------x-|-----|
E|-----------------------------------------------------------------------------------|

Bridge

(If I turn the world over...)

e|---0--^---|---x--^---0---|---^---|---x--^---0---|----/----0---^---|----------------|
B|--12--|---|---x--|--12---|---|---|---x--|--12---|----/---15---|---|----------------|
G|---0--|---|---x--|---0---|---|---|---x--|---0---|----/----0---|---|----------------|
D|---9--|---v-- x--|---9---v---|---v-- x--|---9---v----/---12---|---|----------------|
A|--10--|-------------10-------|-------------10--------/---14---|---v----------------|
E|---x-----------------x----------------------x-------------x------------------------|


e|---0--^---|---x--^---0---|---^---|---x--^----0---|----/----0---^---|----------------|
B|--14--|---|---x--|--14---|---|---|---x--|---14---|----/---15---|---|--------------- |
G|---0--|---|---x--|---0---|---|---|---x--|----0---|----/----0---|---|----------------|
D|--11--|---v-- x--|--11---v---|---v-- x--|---11---v----/---12---|---|--------------- |
A|--12--|-------------12-------|--------------12--------/---14---|---v----------------|
E|---x-----------------x-----------------------x-------------x------------------------|


e|---0---^---|---x--^----0---|---^---|---x--^----0---|---^----0---|---0---^--------------|
B|--12---|---|---x--|---12---|---|---|---x--|---12---|---|---10---|---0---|--------------|
G|---0---|---|---x--|----0---|---|---|---x--|----0---|---|----0---|---0---|--------------|
D|---9---|---v-- x--|----9---v---|---v---x--|----9---v---|----9---v---9---|--------------|
A|--10---|--------------10-------|--------------10-------|---10------10---|--------------|
E|---x-------------------x-----------------------x------------x-------x------------------|


e|---9---^---|---x--^----9---|---^--h-(10)--|---|---^---9---|---x--^---9---|----------|
B|--10---|---|---x--|---10---|---|----------|---|---|--10---|---x--|--10---|----------|
G|---9---|---|---x--|----9---|---|----------|---|---|---9---|---x--|---9---|----------|
D|---0---|---v---x--|----0---v---|----------v---v---|---0---v---x--|---0---v----------|
A|---x-------------------x------------------------------x-----------------------------|
E|---x-------------------x------------------------------x-----------------------------|


e|---0---^---|---x--^----0---|---^---|---x--^---0---|---^---|---^---|-------------------|
B|--12---|---|---x--|---12---|---|---|---x--|--12---|---|---|---|---|-------------------|
G|---0---|---|---x--|----0---|---|---|---x--|---0---|---|---|---|---|-------------------|
D|---9---|---v-- x--|----9---v---|---v---x--|---9---v---|---v---|---v-------------------|
A|--10---|--------------10-------|-------------10-------|-------------------------------|
E|---x-------------------x----------------------x---------------------------------------|


e|---0--^---|---^---|----0---^--|---^---|----0---^---|---^---|--------------------------|
B|--15--|---|---|---|---14---|--|---|---|---12---|---|---|---|--------0--8--------------|
G|---0--|---|---|---|----0---|--|---|---|----0---|---|---|---|---0--9-------------------|
D|--11--|---|---|---|---11---|--|---|---|---11---|---|---|---|--------------------------|
A|--12--|---v---|---v---12---|--v---|---v---12---|---v---|---v--------------------------|
E|---x----------------------------------------------------------------------------------|

Chorus

e|---10---^---|---x--^---10---|---^---|---x--^--10---|---^---|---^---|---------------|
B|---10---|---|---x--|---10---|---|---|---x--|--10---|---|---|---|---|---------------|
G|----0---|---v---x--|----0---|---|---|---x--|---0---|---|---|---|---|---------------|
D|----9-----------x--|----9---v---|---v---x--|---9---v---|---v---|---v---------------|
A|----9-------------------9-------|--------------9-------|---------------------------|
E|----0-------------------0-------|--------------0-------|---------------------------|


e|---10---^---|---x--^---10---|---^---|---x--^---10---|---^---|---^---|---------------|
B|---10---|---|---x--|---10---|---|---|---x--|---10---|---|---|---|---|---------------|
G|----0---|---v---x--|----0---|---|---|---x--|----0---|---|---|---|---|---------------|
D|----9---|-------x--|----9---v---|---v---x--|----9---v---|---v---|---v---------------|
A|---10---|--------------10-------|--------------10-------|---------------------------|
E|----x-------------------x-----------------------x-----------------------------------|


e|---10---^---|---x--^---10---|---^---|---x--^--10---|---^---|---^---|---------------|
B|---10---|---|---x--|---10---|---|---|---x--|--10---|---|---|---|----|--------------|
G|----0---|---v---x--|----0---|---|---|---x--|---0---|---|---|---|----|--------------|
D|----0---|-------x--|----0---v---|---v---x--|---0---v---|---v---|----v--------------|
A|----9---|---------------9-------|--------------9-------|---------------------------|
E|---10---|--------------10-------|-------------10-------|---------------------------|


e|---9---^---|---x--^----9---|---^--h-(10)--|---^---|---^----9---|---^---|-------------|
B|--10---|---|---x--|---10---|---|----------|---|---|---|---10---|---|---|-------------|
G|---9---|---|---x--|----9---|---|----------|---|---|---|----9---|---|---|-------------|
D|---0---|---v---x--|----0---v---|----------v---|---v---|----0---v---|---v-------------|
A|---x------------------ x-----------------------------------x-------------------------|
E|---x------------------ x-----------------------------------x-------------------------|


Play the Chorus twice, then play :-

e|---10---^---|---x--^---10---|---^---|---x--^--10---|---^---|---^---|---------------|
B|---10---|---|---x--|---10---|---|---|---x--|--10---|---|---|---|---|---------------|
G|----0---|---v---x--|----0---|---|---|---x--|---0---|---|---|---|---|---------------|
D|----9---|-------x--|----9---v---|---v---x--|---9---v---|---v---|---v---------------|
A|----9---|---------------9-------|--------------9-------|---------------------------|
E|----0---|---------------0-------|--------------0-------|---------------------------|


e|---10---^---------|---|---10---^----^--|---^-------- |---|---10---^----------------|
B|---10---|---------|---|---10---|----|--|---|---------|---|---10---|----------------|
G|----0---|---------|---|----0---|----|--v---|---------|---|----0---|----------------|
D|----0---|--h-(9)--v-- v----0---|----|------|--h-(9)--v---v----0---|----------------|
A|---10---|-----------------10---|-----------|-----------------10---|----------------|
E|----x----------------------x----------------------------------x--------------------|


e|---10---^--|---^---------^---|---|---10---^----------------------------------------|
B|---10---|--|---|---------|---|---|---10---|----------------------------------------|
G|----0---|--v---|---------|---|---|----0---|----------------------------------------|
D|----0---|------|--h-(9)--|---v---v----0---|----------------------------------------|
A|---10----------|---------------------10---|----------------------------------------|
E|----x---------------------------------x--------------------------------------------|

Instrumental break 2


    ^  v  v  v   ^  v  ^   v  ^  v  ^           v  v  v  ^         ^  v  ^
e|----------------------------------------------------------------------------------|
B|--0--0--0--0---0--0--0---0--0--0--0-----------0--0--0--0---------0--0--0----------|
G|--0--0--0--0--11--9--0--11--9--0--11-/-(12)--11--9--0--9-/-(11)--9--0--0----------|
D|----------------------------------------------------------------------------------|
A|----------------------------------------------------------------------------------|
E|----------------------------------------------------------------------------------|


    ^  v  v  v   ^  v  ^   v  ^  v   ^         v   v  v  ^         ^  v  ^
e|----------------------------------------------------------------------------------|
B|--0--0--0--0---0--0--0---0--0--0---0---------0---0--0--0---------0--0--0----------|
G|- 0--0--0--0--11--9--0--11--9--0--11-/-(12)--11--9--0--9-/-(11)--9--0--0----------|
D|----------------------------------------------------------------------------------|
A|----------------------------------------------------------------------------------|
E|----------------------------------------------------------------------------------|


                                         quick
    ^  v  v  v   ^  v  ^   v  ^  v   ^   ^ v ^  v  v  v  ^         ^  v  ^
e|----------------------------------------------------------------------------------|
B|--0--0--0--0---0--0--0---0--0--0-------0------0--0--0--0---------0--0-------------|
G|--0--0--0--0--11--9--0--11--9--0--12--12-----11--9--0--9-/-(11)--9--0--0----------|
D|-----------------------------------------------------------------------0-h-(9)----|
A|----------------------------------------------------------------------------------|
E|----------------------------------------------------------------------------------|


    ^  v  v  v   ^  v  ^   v  ^  v   ^          ^   v  ^          ^   v  ^        ^ v    ^  v  ^  v
e|--------------------------------------------------------------------------------------------------|
B|--0--0--0--0---0--0--0---0--0--0--------------0---0-------------0---0-----------0-0----------0--8-|
G|--0--0--0--0--11--9--0--11--9--0---0-h-(12)--12--12--0-h-(11)--11--11--0-h-(9)--9-9----0--9-------|
D|--------------------------------------------------------------------------------------------------|
A|--------------------------------------------------------------------------------------------------|
E|--------------------------------------------------------------------------------------------------|


Chorus

e|---10---^---|---x--^---10---|---^---|---x--^--10---|---^---|---^---|---------------|
B|---10---|---|---x--|---10---|---|---|---x--|--10---|---|---|---|---|---------------|
G|----0---|---v---x--|----0---|---|---|---x--|---0---|---|---|---|---|---------------|
D|----9-----------x--|----9---v---|---v---x--|---9---v---|---v---|---v---------------|
A|----9-------------------9-------|--------------9-------|---------------------------|
E|----0-------------------0-------|--------------0-------|---------------------------|


e|---10---^---|---x--^---10---|---^---|---x--^---10---|---^---|---^---|---------------|
B|---10---|---|---x--|---10---|---|---|---x--|---10---|---|---|---|---|---------------|
G|----0---|---v---x--|----0---|---|---|---x--|----0---|---|---|---|---|---------------|
D|----9---|-------x--|----9---v---|---v---x--|----9---v---|---v---|---v---------------|
A|---10---|--------------10-------|--------------10-------|---------------------------|
E|----x-------------------x-----------------------x-----------------------------------|


e|---10---^---|---x--^---10---|---^---|---x--^--10---|---^---|---^---|---------------|
B|---10---|---|---x--|---10---|---|---|---x--|--10---|---|---|---|----|--------------|
G|----0---|---v---x--|----0---|---|---|---x--|---0---|---|---|---|----|--------------|
D|----0---|-------x--|----0---v---|---v---x--|---0---v---|---v---|----v--------------|
A|----9---|---------------9-------|--------------9-------|---------------------------|
E|---10---|--------------10-------|-------------10-------|---------------------------|


e|---9---^---|---x--^----9---|---^--h-(10)--|---^---|---^----9---|---^---|-------------|
B|--10---|---|---x--|---10---|---|----------|---|---|---|---10---|---|---|-------------|
G|---9---|---|---x--|----9---|---|----------|---|---|---|----9---|---|---|-------------|
D|---0---|---v---x--|----0---v---|----------v---|---v---|----0---v---|---v-------------|
A|---x------------------ x-----------------------------------x-------------------------|
E|---x------------------ x-----------------------------------x-------------------------|


Play the Chorus twice, then play :-

e|---10---^---|---x--^---10---|---^---|---x--^--10---|---^---|---^---|---------------|
B|---10---|---|---x--|---10---|---|---|---x--|--10---|---|---|---|---|---------------|
G|----0---|---v---x--|----0---|---|---|---x--|---0---|---|---|---|---|---------------|
D|----9---|-------x--|----9---v---|---v---x--|---9---v---|---v---|---v---------------|
A|----9---|---------------9-------|--------------9-------|---------------------------|
E|----0---|---------------0-------|--------------0-------|---------------------------|


e|---10---^--------|---|---10---^---|---|---^-- |---^---|-----------------------------|
B|---10---|--------|---|---10---|---|---|---|---|---|---|-----------------------------|
G|----0---|--------|---|----0---|---|---|---|---|---|---|-----------------------------|
D|----0---|--h-(9)-v-- v----0---|---v-- v---|---v---|---v-----------------------------|
A|---10---|----------------10---|-----------|-------|---------------------------------|
E|----x---------------------x---------------------------------------------------------|


e|---10---^--------|---|---10---^---|---|---^-- |---^---|-----------------------------|
B|---10---|--------|---|---10---|---|---|---|---|---|---|-----------------------------|
G|----0---|--------|---|----0---|---|---|---|---|---|---|-----------------------------|
D|----0---|--h-(9)-v---v----0---|---v---v---|---v---|---v-----------------------------|
A|---10---|----------------10---|-----------|-------|---------------------------------|
E|----x---------------------x---------------------------------------------------------|


e|---10---^---------^---|---10--^---------^---|---10---^---------^---|--x--^--|--^--|----|
B|---10---|---------|---|---10--|---------|---|---10---|---------|---|--x--|--|--|--|----|
G|----0---|---------|---|----0--|---------|---|----0---|---------|---|--x--|--|--|--|----|
D|----0---|--h-(9)--|---v----0--|--h-(9)--|---v----0---|--h-(9)--|---v--x--|--|--|--|----|
A|---10---|-----------------10--|-----------------10---|----------------x--|--|--|--|----|
E|----x----------------------x------------------- -x--------------------x--|--v- |--v----|


Chorus

e|---10---^---|---x--^---10---|---^---|---x--^--10---|---^---|---^---|---------------|
B|---10---|---|---x--|---10---|---|---|---x--|--10---|---|---|---|---|---------------|
G|----0---|---v---x--|----0---|---|---|---x--|---0---|---|---|---|---|---------------|
D|----9-----------x--|----9---v---|---v---x--|---9---v---|---v---|---v---------------|
A|----9-------------------9-------|--------------9-------|---------------------------|
E|----0-------------------0-------|--------------0-------|---------------------------|


e|---10---^---|---x--^---10---|---^---|---x--^---10---|---^---|---^---|---------------|
B|---10---|---|---x--|---10---|---|---|---x--|---10---|---|---|---|---|---------------|
G|----0---|---v---x--|----0---|---|---|---x--|----0---|---|---|---|---|---------------|
D|----9---|-------x--|----9---v---|---v---x--|----9---v---|---v---|---v---------------|
A|---10---|--------------10-------|--------------10-------|---------------------------|
E|----x-------------------x-----------------------x-----------------------------------|


e|---10---^---|---x--^---10---|---^---|---x--^--10---|---^---|---^---|---------------|
B|---10---|---|---x--|---10---|---|---|---x--|--10---|---|---|---|----|--------------|
G|----0---|---v---x--|----0---|---|---|---x--|---0---|---|---|---|----|--------------|
D|----0---|-------x--|----0---v---|---v---x--|---0---v---|---v---|----v--------------|
A|----9---|---------------9-------|--------------9-------|---------------------------|
E|---10---|--------------10-------|-------------10-------|---------------------------|


e|---9---^---|---x--^----9---|---^--h-(10)--|---^---|---^----9---|---^---|-------------|
B|--10---|---|---x--|---10---|---|----------|---|---|---|---10---|---|---|-------------|
G|---9---|---|---x--|----9---|---|----------|---|---|---|----9---|---|---|-------------|
D|---0---|---v---x--|----0---v---|----------v---|---v---|----0---v---|---v-------------|
A|---x------------------ x-----------------------------------x-------------------------|
E|---x------------------ x-----------------------------------x-------------------------|


Play the Chorus twice, then play :-

e|---10---^---|---x--^---10---|---^---|---x--^--10---|---^---|---^---|---------------|
B|---10---|---|---x--|---10---|---|---|---x--|--10---|---|---|---|---|---------------|
G|----0---|---v---x--|----0---|---|---|---x--|---0---|---|---|---|---|---------------|
D|----9---|-------x--|----9---v---|---v---x--|---9---v---|---v---|---v---------------|
A|----9---|---------------9-------|--------------9-------|---------------------------|
E|----0---|---------------0-------|--------------0-------|---------------------------|


e|---10---^--------|---|---10---^---^--|---^-------- |---|---10---^----------------|
B|---10---|--------|---|---10---|---|--|---|---------|---|---10---|----------------|
G|----0---|--------|---|----0---|---|--v---|---------|---|----0---|----------------|
D|----0---|--h-(9)-v---v----0---|---|------|--h-(9)--v---v----0---|----------------|
A|---10---|----------------10---|----------|-----------------10---|----------------|
E|----x---------------------x---------------------------------x--------------------|


e|---10---^--|---^---------^---|---|---10---^---------------------------------------|
B|---10---|--|---|---------|---|---|---10---|---------------------------------------|
G|----0---|--v---|---------|---|---|----0---|---------------------------------------|
D|----0---|------|--h-(9)--|---v---v----0---|---------------------------------------|
A|---10----------|---------------------10---|---------------------------------------|
E|----x---------------------------------x-------------------------------------------|


Outro

e|---10-------------10-----------------10---|---|---x--^-- 10---|---^---x--^--10---|--^--x-^---|
B|---10-------------10-----------------10---|---|---x--|-- 10---|---|---x--|--10---|--|--x-|---|
G|----0---^---x--^---0---|---|---x--^-- 0---|---|---x--|----0---|---|---x--|---0---|--|--x-|---|
D|----0---|---x--|---0---|---|---x--|---0---|---|---x--|----9---|---|---x--|---9---|--|--x-|---|
A|----9---|---x--|---0---|---|---x--|---9---v-- v---x--|---10---v---|---x--|--10---v--|--x-|---|
E|---10---|---x--|---9---v---v---x--|---x-------------------x------------------x---------------|

                                                                  quick
e|---10---|---|---x--^---10------------------10-------^----------------------------------|
B|---10---|---|---x--|---10------------------10-------|----------------------------------|
G|----0---|---|---x--|----0---|---|---x--^----0---|---|---x--^----^--|--^---x--^---------|
D|----0---|---|---x--|----0---|---|---x--|----0---|---|---x--|----|--|--|---x--|---------|
A|----9---v---v---x--|----0---|---|---x--|----9---|---|---x--|----|--|--|---x--|---------|
E|----x-------------------9---v---v---x--|---10---v---|---x--|----|--v--|---x--|---------|


e|---10-----------------10---|---|---x--^---10---|---^---x--^---10---|---^--x--^-----------|
B|---10-----------------10---|---|---x--|---10---|---|---x--|---10---|---|--x--|-----------|
G|----0---|---|---x--^---0---|---|---x--|----0---|---|---x--|----0---|---|--x--|-----------|
D|----0---|---|---x--|---0---|---|---x--|----9---|---|---x--|----9---|---|--x--|-----------|
A|----0---|---|---x--|---9---v--v----x--|---10---v---|---x--|---10---v---|--x--|-----------|
E|----9---v---v---x--|---x-------------------x-------------------x-------------------------|


e|---10---|---|---x--^---10-----------------10-------^--10------10---^--|--^--10---|---------|
B|---10---|---|---x--|---10-----------------10-------|--10------10---|--|--|--10---|--x--^---|
G|----0---|---|---x--|----0---|---|---x--^---0---|---|---0---^---0---|--|--|---0---|--x--|---|
D|----0---|---|---x--|----0---|---|---x--|---0---|---|---0---|---9---|--|--|---0---|--x--|---|
A|----9---v---v---x--|----0---|---|---x--|---9---|---|---0---|--10---|--v--|---9---v--x--|---|
E|----x-------------------9---v---v---x--|--10---v---|---9---|---x-------------x-------------|


e|----9---|---x--^---10---|---^--------------------------|
B|---10---|---x--|---10---|---|-----Abrupt stop,---------|
G|----9---|---x--|----0---|---|-----don't let strings----|
D|----0---v---x--|----0---|---|-----ring on--------------|
A|----x---------------9---|---|--------------------------|
E|----x--------------10---v---|--------------------------|


************************************
| /   slide up
| \   slide down
| h   hammer-on
| p   pull-off
| ~   vibrato
| +   harmonic
| x   Mute note
| b   Bend
| pb  Pre-bend
| br  Bend release
| pbr Pre-bend release
| brb Bend release bend
************************************
Добавлено: 10.08.2015
Вам также может быть интересно:
Другие материалы по этой песне:
  • Аккорды и текст

Страница создана 10.08.2015
http://primanota.ru/megson/fell-to-breeze-chords.htm
Привет, Гость.
Предлагаем пройти революционный курс по гитаре.
Подарок от PrimaNota.Ru, забирай!