PrimaNota.ru - самый крупный в мире бесплатный архив песенных текстов, аккордов, табулатур и нот


Megosh - Body Works Reprise - аккорды и текст, видео

Регистрация Запомнить меня
Войти через:  Facebook Google Twitter Vk Yandex Mail.ru

Megosh - Body Works Reprise - аккорды и текст, видео

Печатать
Просмотров: 91
Body Works Reprise
Megosh
--------------------------------------
    BODY WORKS (REPRISE) - MEGOSH
--------------------------------------
    Tabbed by: me lol 
    Email: crownthegoldfish@gmail.com  
    Tuning: Standard 
--------------------------------------

INTRO:

e|------------------------------------------------------------------|
B|------------------------------------------------------------------|
G|----------------------------------------3-2-0---------------------|
D|--3-3-3-3-3-3-7-7-2-2-2-2-2-2-2-2-0-2-3-------3---3-3-3-3-2-2-2-2-| X 3
A|-5-5-5-5-5-5-8-8-3-3-3-3-3-3-3-3-1-1-1-1-1-1-1-1-5-5-5-5-3-3-3-3--|
E|------------------------------------------------------------------|

He's twenty three he knows that she's younger
She's seen him before but he's always loved her
What he didn't know is she's been loved more than most

When this is all said and done
Won't it feel so alone?
When we question (the name?)
All that remains is what we've lost

END WITH:
e|--------|
B|--------|
G|----0-2-|
D|--0-----|
A|-1-1----|
E|--------|

(??? something sinks ships)

CHORUS:

Bb
Captain we've made our decision to kill
Dm
My heart's in danger now

(Can I just take a million pills?)

Bb              C           Dm
That won't make anyone feel better
Bb              C           Dm
That won't make anyone feel better

(Dear...)

Bb
Captain we've made our decision to kill
Dm
My heart's in danger now

(Can I just take a million pills?)

Bb              C           Dm
That won't make anyone feel better
Bb              C          
That won't make anyone feel better

Bridge: 

(repeat these over and over...)
e|----1-0--|  |----1-0--|  |----1-0--|  |----1-0--|
B|-------3-|  |-------3-|  |-------3-|  |-------3-|
G|--2------|  |--2------|  |--2------|  |--2------|
D|-0-------|  |-3-------|  |-0-------|  |-2-------|
A|---------|  |---------|  |---------|  |---------|
E|---------|  |---------|  |---------|  |---------|

Try and make your body move like mine
Forget mistakes we made like
Morals and what's right

**END WITH THE CHORD Dm

CHORUS:

Bb 
Captain we've made a decision to kill
(Try and make your body move like mine)

Dm
My heart's in danger now

(Can I just take a million pills?)
(Forget mistakes we made like)

Bb              C        Dm
That don't make anyone feel better
(Morals and what's right)

Bb              C           Dm
That don't make anyone feel better

(Dear...)

Bb 
Captain we've made a decision to kill
(Try and make your body move like mine)

Dm
My heart's in danger now

(Can I just take a million pills?)
(Forget mistakes we made like)

Bb              C           Dm
That don't make anyone feel better
(Morals and what's right)

Bb              C           Dm
That don't make anyone feel better

-----------------
| /  slide up
| \  slide down
| h  hammer-on
| p  pull-off
| ~  vibrato
| +  harmonic
| x  Mute note
Добавлено: 03.06.2016
Другие материалы по этой песне:
  • Аккорды и текст

Страница создана 03.06.2016
http://primanota.ru/megosh/body-works-reprise-chords.htm
Привет, Гость.
Предлагаем пройти революционный курс по гитаре.
Подарок от PrimaNota.Ru, забирай!