PrimaNota.ru - самый крупный в мире бесплатный архив песенных текстов, аккордов, табулатур и нот


Meganoidi - Meganoidi - текст песни, бас-таба, видео

Регистрация Запомнить меня
Войти через:  Facebook Google Twitter Vk Yandex Mail.ru

Meganoidi - Meganoidi - текст песни, бас-таба, видео

Печатать
Просмотров: 90
		   --------

Titolo: Meganoidi
Autore: Meganoidi
Album: Into The Darkness, Into the moda
Tabbed by: Jampi Bozzali
Email:  cinquecorde@katamail.com>  spacecowboy@sicilyonline.it>


- Intro

  G
|---------------9---10-x-10---10-x-10---11-x-11---11---------------------|
  D
|---8-x-8---8----------------------------------------------------3--6----|
  A
|-------------7---8---------8---------9---------9----6h7-6---4-6---------|
  E
|-6-------6--------------------------------------------------------------|


|---------------9---10-x-10-------------11-x-11---11---------------------|

|---8-x-8---8--------------------10------------------------------3-6-----|

|-------------7---8-----------10----8h9---------9----6h7-6---4-6---------|
"check it out!"

|-6-------6-----------------8-----------------------------------------1--|

- Verso


|-----------------9---10-x-10-------------11-x-11---11---------------------------|

|-----8-x-8---8--------------------10------------------------------3-6-----------|

|---------------7---8-----------10----8h9---------9----6h7-6---4-6--------0-3-0--|

|---6-------6-----------------8-----------------------------------------1--------|
     Il verso varia spesso e scriverlo sarebbe stato un po' complicato
     perciò sta alla vostra inventiva fare qualche variante...

- Rit


|------------------------------------------------------------------------|

|-------------------------------------------------3-3-3-3-(....)---------|

|1-1-1-1-(...)----------------------------4-4-4-4------------------------|

|-------------1-1-1-1-(...)-2-2-2-2-(...)--------------------------------|
      idem come sopra

- 1° Interludio (2 giri)

|-6-------------6-8------------10-----------------------6--------9-----------|
|---8-x-8--6-8------7----7---7----8-------8---9---11------4-6------7-9-------|
|--------------------8-8---8--------9-x-9---9---9-----4--------7-------------|
|----------------------------------------------------------------------------|
  Ovviamente il primo giro è quello più interessante... il secondo può anche
  andar bene un'ottava più bassa ma vi consiglio di improvvisarci qualcosa


- 2° Interludio
  A trascrizione del secondo interludio è inutile... Improvvisate una linea
  reggae sul giro: SIb - FA - SOLb - REb - FA (Potete prendere spunto dalle
  triadi).


- Outro (tempo rallentanto)
/-
|
|
|---------------9---10-x-10---10-x-10----11-x-11---11------------------------|
|
|---8-x-8---8------------------------------------------------------3h6p3\----|
|
|-------------7---8---------8----------9---------9-----6h7-6---4-6-----------|
|
|-6-------6------------------------------------------------------------------|
|
| |---------------------7h8-------||
| |-------------------8-----8-----||
| |----0h1-3-0----6h8---------8---||
| |-1-----------6---------------6~||
|   *
\--


Taken from The Bass Tab Archive ~ http://www.basstabarchive.com







========
--------
                              MEGANOIDI (Basso)
                            As recorded by Meganoidi
                    (Album INTO THE DARKNESS, INTO THE MODA)

Tabbato da Canna Joint and Lele Casbah
QUESTO E' GIUSTO DAVVERO!!!!

  Gtr I
  E E E E E E E E   E  E E  E E  E E  E   E  E E  E E S E E   E E E E H
|---------------9-|---10-x-10---10-x-10-|---11-x-11----------|--------------|
|---8-x-8---8-----|---------------------|--------------------|-------5------|
|-------------7---|-8---------8---------|-9---------9--6h7p6-|---6-8--------|
|-6-------6-------|---------------------|--------------------|-9------------|


  E E E E E E E E   E  E E  E E E E E    E  E E  E E S E E   E E E E E E Q
|---------------9-|---10-x-10---------|----11-x-11----------|----------------|
|---8-x-8---8-----|---------------8---|---------------------|-------5--------|
|-------------7---|-8-----------8---8-|-/9---------9--6h7p6-|---6-8----------|
|-6-------6-------|-----------6-------|---------------------|-9-------1------|


  E E E E E E E E   E  E E  E E  E E  E   E  E E  E E S E E   E E E E E E E E
|---------------9-|---10-x-10---10-x-10-|---11-x-11----------|-----------------|
|---8-x-8---8-----|---------------------|--------------------|-------6---------|
|-------------7---|-8---------8---------|-9---------9--6h7p6-|---6-8-----0-3-0-|
|-6-------6-------|---------------------|--------------------|-9-------1-------|


   Verse
    E E E E E E E E   E  E E  E E E E E
||----------------9-|---10-x-10---------|
||o---8-x-8---8-----|---------------8---|
||o-------------7---|-8-----------8---8-|
||--6-------6-------|-----------6-------|


   E  E E  E E S E E   E E E E E E E E
|----11-x-11----------|-------------------||
|---------------------|-------6----------o||
|-/9---------9--6h7p6-|---6-8-----0-3-0--o||
|---------------------|-9-------1---------||


   Pre-Verse
    Q  E E E E E E   Q  E E E E E E   Q  E E E E E E   Q  E E E E E E
||-----------------|----------------|----------------|------------------||
||o----------------|----------------|----------------|-----------------o||
||o-1--1-1-1-1-1-1-|----------------|----------------|-4--4-4---0-3-0--o||
||-----------------|-1--1-1-1-1-1-1-|-2--2-2-2-2-2-2-|--------1---------||


 Verse
  E E E E E E E E   E  E E  E E  E E  E   E  E E  E E S E E   E E E E E Q  E
|---------------9-|---10-x-10---10-x-10-|---11-x-11----------|----------------|
|---8-x-8---8-----|---------------------|--------------------|-------6--------|
|-------------7---|-8---------8---------|-9---------9--6h7p6-|---6-8----------|
|-6-------6-------|---------------------|--------------------|-9-------1------|


  E E E E E E E E   E  E E  E E  E E  E   E  E E  E E S E E   E E E E E E E E
|---------------9-|---10-x-10---10-x-10-|---11-x-11----------|-----------------|
|---8-x-8---8-----|---------------------|--------------------|-------6---------|
|-------------7---|-8---------8---------|-9---------9--6h7p6-|---6-8-----0-3-0-|
|-6-------6-------|---------------------|--------------------|-9-------1-------|


   Chorus
    Q  E E E E E E   Q  E E E E E E   Q  E E E E E E   Q  E E E E E E
||-----------------|----------------|----------------|------------------||
||o----------------|----------------|----------------|-----------------o||
||o-1--1-1-1-1-1-1-|----------------|----------------|-4--4-4---0-3-0--o||
||-----------------|-1--1-1-1-1-1-1-|-2--2-2-2-2-2-2-|--------1---------||


   Out-Chorus
    W          H    H      E E E E E E E E   E E E E E E E E
||-----------|-----------|-----------------|-------------------||
||o-4--------|-3---------|-----------------|------------------o||
||o----------|------4----|-1-1-1-1-1-1-1-1-|-1-1-1-1-1-1-1-1--o||
||-----------|-----------|-----------------|-------------------||


                            Bass Solo
  W          Q  Q  Q  Q      E E E E
|----------|-------------||--6-------|
|-4--------|-3-----6-----||o---8---8-|
|----------|-------------||o---------|
|----------|-------------||----------|


  E E E E   E E E E   E E E  E   E E E E
|-----6-8-|---------|-------10-|-----------|
|-6-8-----|-7-------|-7---7----|-8---------|
|---------|---8---8-|---8------|---9---9---|
|---------|---------|----------|-----------|


                                    Pre-Verse
  E E E  E   E  E E  E E  E E  E     E E E E E E E E
|----------|-------------10-------||---------------9-|
|-8---8-11-|---11-----------7-10-o||---8-x-8---8-----|
|---9------|------8-11-8---------o||-------------7---|
|----------|-9--------------------||-6-------6-------|


  E  E E  E E  E E  E   E  E E  E E S E E   E E E E E E E E
|---10-x-10---10-x-10-|---11-x-11----------|------------------|
|---------------------|--------------------|-------6----------|
|-8---------8---------|-9---------9--6h7p6-|---6-8-----0-3-0--|
|---------------------|--------------------|-9-------1--------|


 Verse
  E E E E E E E E   E  E E  E E  E E  E   E  E E  E E S E E   E E E E q  Q
|---------------9-|---10-x-10---10-x-10-|---11-x-11----------|------------2--|
|---8-x-8---8-----|---------------------|--------------------|-------6-------|
|-------------7---|-8---------8---------|-9---------9--6h7p6-|---6-8---------|
|-6-------6-------|---------------------|--------------------|-9-------1-----|


  E E E E E E E E   E  E E  E E E E E    E  E E  E E S E E   E E E E E E E E
|---------------9-|---10-x-10---------|----11-x-11----------|-----------------|
|---8-x-8---8-----|---------------8---|---------------------|-------5---------|
|-------------7---|-8-----------8---8-|-/9---------9--6h7p6-|---6-8-----0-3-0-|
|-6-------6-------|-----------6-------|---------------------|-9-------1-------|


  E E E E E E E E   E  E E  E E E E E    E  E E  E E S E E   E E E E q  Q
|---------------9-|---10-x-10---------|----11-x-11----------|------------2--|
|---8-x-8---8-----|---------------8---|---------------------|-------5-------|
|-------------7---|-8-----------8---8-|-/9---------9--6h7p6-|---6-8---------|
|-6-------6-------|-----------6-------|---------------------|-9-------1-----|


   Trumpet Solo
    Q  Q  Q  Q    Q  Q  Q  Q    Q  Q  Q  Q    Q  Q  Q  Q   3x
||--------------|-------------|-------------|--------------||
||o-------------|-------------|-------------|-------------o||
||o-1-----1-----|-------------|-------------|-4-----------o||
||--------------|-1-----1-----|-2-----2-----|-------1------||


    Q  Q  Q  Q    Q  Q  Q  Q    Q  Q  Q  Q
|-|-------------|-------------|--------------|
|-|-------------|-------------|--------------|
|-|-1-----1-----|-------------|--------------|
|-|-------------|-1-----1-----|-2-----2------|


                  Verse
   H     H         E E E E E E E E   E  E E  E E  E E  E
|--------------||----------------9-|---10-x-10---10-x-10-|
|--------------||o---8-x-8---8-----|---------------------|
|--------------||o-------------7---|-8---------8---------|
|-13\----1/----||--6-------6-------|---------------------|


  E  E E  E E S E E   E E E E E E E E
|---11-x-11----------|------------------||
|--------------------|-------6---------o||
|-9---------9--6h7p6-|---6-8-----0-3-0-o||
|--------------------|-9-------1--------||


   Verse
    Q  E E E E E E   Q  E E E E E E   Q  E E E E E E   Q  E E E E E E   4x
||-----------------|----------------|----------------|------------------||
||o----------------|----------------|----------------|-----------------o||
||o-1--1-1-1-1-1-1-|----------------|----------------|-4--4-4---0-3-0--o||
||-----------------|-1--1-1-1-1-1-1-|-2--2-2-2-2-2-2-|--------1---------||


   Out-Chorus
                                                1.                2.
    Q  E E Q  Q    Q  E E Q  Q    Q  E E Q  Q    Q  Q  Q  Q        Q  Q  H
||---------------|--------------|--------------|--------------||-|------------|
||o--------------|--------------|--------------|-------------o||-|------------|
||o-1----1-1-----|--------------|--------------|-4-----------o||-|-4----------|
||---------------|-1----1-1-----|-2----2-2-----|-------1------||-|------------|


  E E E E E E E E   E E E E E E E E   E E E E E E E E   Q  Q  H
|-----------------|-----------------|-----------------|------------|
|-----------------|-----------------|-----------------|------------|
|-1-1-1-1-1-1-1-1-|-1-1-1-1-1-1-1-1-|-1-1-1-1-1-1-1-1-|-4----------|
|-----------------|-----------------|-----------------|------------|


   Chorus
    Q  E E E E E E   Q  E E E E E E   Q  E E E E E E   Q  E E E E E E   4x
||-----------------|----------------|----------------|------------------||
||o----------------|----------------|----------------|-----------------o||
||o-1--1-1-1-1-1-1-|----------------|----------------|-4--4-4---0-3-0--o||
||-----------------|-1--1-1-1-1-1-1-|-2--2-2-2-2-2-2-|--------1---------||


 Outro
  E E E E E E E E   E  E E  E E  E E  E
|---------------9-|---10-x-10---10-x-10-|
|---8-x-8---8-----|---------------------|
|-------------7---|-8---------8---------|
|-6-------6-------|---------------------|


  E  E E  E E S E E   E S S E E E S S E E
|---11-x-11----------|---------------------|
|--------------------|-------6-------------|
|-9---------9--6h7p6-|---6s8---8-------3---|
|--------------------|-9---------1-3s5---5-|


  Q  E E Q  Q    Q  Q  H      +W
|--------3--7--|-3----------|--------*|
|----1-3-------|----3-------|--------*|
|-1------------|-------1----|-(1)----*|
|--------------|------------|--------*|


Legenda Durata
--------------
W - whole; H - half; Q - quarter; E - 8th; S - 16th; T - 32nd; X - 64th;
. - note dotted; .. - note double dotted

Legenda Musicale
----------------
 |  - bar
||  - double bar
||o - repeat start
o|| - repeat end
*|  - double bar (ending)
 :  - bar (freetime)
 $  - Segno
 &  - Coda

PER INSULTI, COMMENTI O ALTRO EMAIL: LELECASBAH@YAHOO.IT OPPURE UTENTI.LYCOS.IT/CASBAH	     
Добавлено: 01.12.2013
Другие материалы по этой песне:

Страница создана 30.04.2012
http://primanota.ru/meganoidi/meganoidi-chords.htm
Привет, Гость.
Предлагаем пройти революционный курс по гитаре.
Подарок от PrimaNota.Ru, забирай!